E-Chords
Nofx

The Quitter(Ukulele chords)

Nofx

Key: Em
Intro 

Baixo 

G|-------------------------------------| 
D|-----------5-5-5-5-----------7-7-7-7-| 
A|--7-7-7-7-----------5-5-5-5----------| 
E|-------------------------------------|
G|-------------------------------------| 
D|------------7-7-7-7----------3-3-3-3-| 
A|--4-4-4-4------------3-3-3-3---------| 
E|-------------------------------------|
Guitarra Parte 1 De 2
    F5    E5 
E|------------| 
B|------------| 
G|--10-10--9--| 
D|--10-10--9--| 
A|--8--8---7--| 
E|------------|
Parte 2 De 2
   E5             D5       
E|---------------------------| 
B|---------------------------| 
G|-9--12--14--16--14--12--14-| 
D|-x---x--x---x---x---x---x--| 
A|-7--10--12--14--12--10--12-| 
E|---------------------------|
  A/C#            C5 
E|---------------------------| 
B|---------------------------| 
G|-9--12--14--16--14--12--9--| 
D|-x--x---x---x---x---x---x--| 
A|-7--10--12--14--12--10--7--| 
E|---------------------------|
Primeira Parte
    E5         E5/D       A/C#       C5     F5 
E|-------------------------------------------------| 
B|-------------------------------------------------| 
G|--9-x-x-x----9-x-x-x----6-x-x-x----5-5----10-10--| 
D|--9-x-x-x----9-x-x-x----7-x-x-x----5-5----10-10--| 
A|--7-7-7-7----5-5-5-5----4-4-4-4----3-3----8--8---| 
E|-------------------------------------------------|

Verse 1:

E5 Be a winner E5/D A/C# C5 F5 Not a problem admitter un quit E5 Better to be a hepper E5/D A/C# C5 F5 Than a healthy 12 stepper, forfeit
E5 G5 You wanna keep it goin' but you don't know how D5 A5 Everyone at meetings gets a low end ride E5 D5 A/C# You quit, you're shit, you're a quitter C5 F5 And no one likes you
Interlúdio
   E5             D5       
E|---------------------------| 
B|---------------------------| 
G|-9--12--14--16--14--12--14-| 
D|-x---x--x---x---x---x---x--| 
A|-7--10--12--14--12--10--12-| 
E|---------------------------|
  A/C#            C5 
E|---------------------------| 
B|---------------------------| 
G|-9--12--14--16--14--12--9--| 
D|-x--x---x---x---x---x---x--| 
A|-7--10--12--14--12--10--7--| 
E|---------------------------|

Verse 2:

E5 E5/D Start a pattern of behavior A/C# C5 F5 I see no reason to stop E5 E5/D You got a habit, got to have it 'til A/C# C5 F5 It's finished don't stop
E5 The Charlie Chan's chopped G5 Pabst pitcher been poured D5 A5 You got a spare kidney and your liver looks bored E5 D5 A/C# So stop fucking around C5 F5 E5 You're buying the next round
Ponte
   E5              C5 
E|--------------|--------| 
B|--------------|--------| 
G|--------------|--5-5-5-| 
D|--2~~~~~~~~~~-|--5-5-5-| 
A|--2~~~~~~~~~~-|--3-3-3-| 
E|--0~~~~~~~~~~-|--------|
E5 G5 You wanna be a Thompson, Hemingway, Bukowski D5 A5 Banging Bill Burroughs lived to 83 E5 D5 A/C# You're famous missing you're rich C5 F5 E5 Quit acting like a bitch
Final
   E5    E5/D    A/C#  C5  F5 
E|----------------------------| 
B|----------------------------| 
G|-9--12--14--16--14---12--14-| 
D|-x---x--x---x---x----x---x--| 
A|-7--10--12--14--12---10--12-| 
E|----------------------------|
   E5    E5/D    A/C#   
E|----------------------------| 
B|----------------------------| 
G|-9--12--14--16--14----------| 
D|-x--x---x---x---x-----------| 
A|-7--10--12--14--12----------| 
E|----------------------------|
C5 F5 E5 And no one likes you!

roll up this ad to continue

share this page

See Also: