Xamegarte

Homem Chora Sim(Ukulele chords)

Xamegarte

Key: G

roll up this ad to continue

	        
Intro: G  Em  D 

 
E|------------5-5-4-4---------5-5-4-4---------------------------------------| 
B|--------------------7-7-5-5-----------------------------------------------| 
G|-2-4-4/6-6---------------------------4/6-4h6p4/2---2-4-6-4/1--1-2-2/4-2~~-| 
G D Quando eu te pedi perdão, você virou a cara Am C G D Me disse um milhão de nãos e me mandou embora G D Me falou que ia doer, mais que um dia sara Am C G Não me vejo sem você, e o que que eu faço agora Refrão: Em Com tanta dor, D/F# quando você bateu aquela porta o mundo desabou C G/B Quem disse que homem não chora muito se enganou Am D/F# Se a maioria é tão forte eu vou falar por mim C9 D9/F# Em Homem chora sim, homem chora sim, Chora sim
 
  Solo: G D 
E|------------5-5-4-4---------5-5-4-4-----------4-4---------4-4-----------------| 
B|--------------------7-7-5-5---------7-7-5-5~------7-7-5-5-----7-7-5-5-3-5/7---| 
G|-2-4-4/6-6--------------------------------------------------------------------| 
 
     C9 G D 
E|----------------------------| 
B|---------5~--5-3-2----5~~---| 
G|-2-4-6-4-----------4--------|  
G D Quando eu te pedi perdão, você virou a cara Am C G D9 Me disse um milhão de nãos e me mandou embora G D9 Me falou que ia doer, mais que um dia sara Am C G Não me vejo sem você, e o que que eu faço agora
Em Com tanta dor, D9/F# quando você bateu aquela porta o mundo desabou C9 G/B Quem disse que homem não chora muito se enganou Am D/F# Se a maioria é tão forte eu vou falar por mim C9 D Homem chora sim, homem chora sim, Chora sim Em Com tanta dor, D9/F# quando você bateu aquela porta o mundo desabou C9 G/B Quem disse que homem não chora muito se enganou Am D/F# Se a maioria é tão forte eu vou falar por mim C9 D Homem chora sim, homem chora sim, Chora sim
Em C Em
share this page

See Also: