Trocadero

Blood Gulch Blues(Ukulele chords)

Trocadero

Key: Am

roll up this ad to continue

	        

    Am                   Am                  Am 
e|--0-0---0-0---0-0-------0-0---0-0---0-0------0-0---0-0--0-0----------| 
B|--1-1---1-1---1-1-------1-1---1-1---1-1------1-1---1-1--1-1--Let-----| 
G|--2-2---2-2---2-2-------2-2---2-2---2-2------2-2---2-2--2-2-Chord----| 
D|--2-2---2-2---2-2-------2-2---2-2---2-2------2-2---2-2--2-2--Ring----| 
A|--0-0---0-0---0-0-------0-0---0-0---0-0------0-0---0-0--0-0----------| 
E|---------------------------------------------------------------------| 

Roses are red and violets are blue  One day weíll cruise down Blood Gulch avenue    

     Am                                              F7         E7 
e|---0-----0-----0-----0------0-----0-----0-----0-----1---1------0--0--| 
B|---1-----1-----1-----1------1-----1-----1-----1-----1---1------0--0--| 
G|---2-----2-----2-----2------2-----2-----2-----2-----2---2------1--1--| 
D|---2-----2-----2-----2------2-----2-----2-----2-----1---3------0--0--| 
A|-0---0-------0---0-------0----0-------0----0--------3---3------2--2--| 
E|-------0---0-------0----0-------0----0------0---0h1-----1---0-----0--| 

 Itís Red versus Red  and Blue versus Blue Itís I against I and me against you 
         
     Am   mi    Am   Fm   Am   Fm   E7       Am 
e|---0-----1-----0-----1-----0-----1---------0----0-0---0-0---0-0------| 
B|---1-----1-----1-----1-----1-----1-----0---0----1-1---0-0---0-0--Let-| 
G|---2-----1-----2-----1-----2-----1-----1---1----2-2---2-2---2-2-Chord| 
D|---2-----3-----2-----3-----2-----3-----0---0----2-2---2-2---2-2- Ring| 
A|-0-------3--0--------3--0--------------2---2----0-0---0-0---0-0------| 
E|------1-----------1-----------1------0-----0-------------------------| 

        Am 
e|------0-0---0-0--0-0-------------| 
B|------1-1---1-1--1-1--Let--------| 
G|------2-2---2-2--2-2-Chord-------| 
D|------2-2---2-2--2-2--Ring-------| 
A|------0-0---0-0--0-0-------------| 
E|---------------------------------| 
Am Em G D Violets are blue Roses are red Living like this weíre already dead
        Am                        
e|------0-0---0-0--0-0-------------| 
B|------1-1---1-1--1-1--Let--------| 
G|------2-2---2-2--2-2-Chord-------| 
D|------2-2---2-2--2-2--Ring-------| 
A|------0-0---0-0--0-0-------------| 
E|---------------------------------| 
F G D Hop in my car it donít have any doors whoah whoah whoah F G D Itís built like a cat it lands on all fours F G D My carís like a Puma it drives on all fours Instrumental: Am F D Am F D Red versus Red Blue versus Blue
      Am                      F7         E7 
e|-----0-----0-----0-----0-----1---1------0--0----------------0------| 
B|-----1-----1-----1-----1-----1---1------0--0--------------0--------| 
G|-----2-----2-----2-----2-----2---2------1--1------------0----------| 
D|-----2-----2-----2-----2-----1---1------0--0----------2------------| 
A|--0----0-------0----0--------3---3------2--2--------0--------------| 
E|---------0----0------0---0h1---------0--0--0-----------------------|
share this page

See Also: