E-Chords
The Pilgrim

Peace Of Mind(Ukulele chords)

The Pilgrim

Key: F#
Intro 

E|---------------------------------------------------------------------------| 
B|-8--8--8--8---8---8--8--8--8---10-10-10-10--10--10-10-10-10----------------| 
G|-9--9--9--9---9---9--9--9--9---11-11-11-11--11--11-11-11-11----------------| 
D|-10-10-10-10--10--10-10-10-10--12-12-12-12--12--12-12-12-12----------------| 
A|-0--0--0--0---0---0--0--0--0---0--0--0--0---0---0--0--0--0-----------------| 
E|---------------------------------------------------------------------------|
E|---------------------------------------------------------------------------| 
B|-8--8--8--8---8---8--8--8--8---10-10-10-10--10--10-10-10-10----------------| 
G|-9--9--9--9---9---9--9--9--9---11-11-11-11--11--11-11-11-11----------------| 
D|-10-10-10-10--10--10-10-10-10--12-12-12-12--12--12-12-12-12----------------| 
A|-0--0--0--0---0---0--0--0--0---0--0--0--0---0---0--0--0--0-----------------| 
E|---------------------------------------------------------------------------|
E|---------------------------------------------------------------------------| 
B|-5-5-5-5--5--5-5-5-5--7-7-7-7--7--7-7-7-7----------------------------------| 
G|-5-5-5-5--5--5-5-5-5--7-7-7-7--7--7-7-7-7----------------------------------| 
D|-5-5-5-5--5--5-5-5-5--7-7-7-7--7--7-7-7-7----------------------------------| 
A|-0-0-0-0--0--0-0-0-0--0-0-0-0--0--0-0-0-0----------------------------------| 
E|---------------------------------------------------------------------------|
E|---------------------------------------------------------------------------| 
B|-5-5-5-5--5--5-5-5-5--7-7-7-7--7--7-7-7-7----------------------------------| 
G|-5-5-5-5--5--5-5-5-5--7-7-7-7--7--7-7-7-7----------------------------------| 
D|-5-5-5-5--5--5-5-5-5--7-7-7-7--7--7-7-7-7----------------------------------| 
A|-0-0-0-0--0--0-0-0-0--0-0-0-0--0--0-0-0-0----------------------------------| 
E|---------------------------------------------------------------------------|
E|-0-0-0-0--0--0-0-0-0--0-0-0----0--0-0-0-0----------------------------------| 
B|-1-1-1-1--1--1-1-1-1--3-3-3-3--3--3-3-3-3----------------------------------| 
G|-0-0-0-0--0--0-0-0-0--2-2-2-2--2--2-2-2-2----------------------------------| 
D|-2-2-2-2--2--2-2-2-2--4-4-4-4--4--4-4-4-4----------------------------------| 
A|-0-0-0-0--0--0-0-0-0--0-0-0-0--0--0-0-0-0----------------------------------| 
E|---------------------------------------------------------------------------|
E|-0-0-0-0--0--0-0-0-0--0-0-0----0--0-0-0-0----------------------------------| 
B|-1-1-1-1--1--1-1-1-1--3-3-3-3--3--3-3-3-3----------------------------------| 
G|-0-0-0-0--0--0-0-0-0--2-2-2-2--2--2-2-2-2----------------------------------| 
D|-2-2-2-2--2--2-2-2-2--4-4-4-4--4--4-4-4-4----------------------------------| 
A|-0-0-0-0--0--0-0-0-0--0-0-0-0--0--0-0-0-0----------------------------------| 
E|---------------------------------------------------------------------------|

Verse 1:

Am7 D Come tonight Am7 D Riding slowly to the 69 Am7 D And my friend keep in mind Am7 D The road is long but it will be fine Am7 D I got wind in my face Am7 D Eyes are glowing with the final rays Am7 D I can see the green fields Am7 D Smoke is buzzing from the magic stick
C D Am7 D Am7 D And I know where the peace of mind is

Verse 2:

Am7 D Come my friend Am7 D Ride til here this is not the end Am7 D Sixty steps to raise your mind Am7 D Build your spirit walking to the shrine Am7 D Am7 I went around around around to see the things around and find my D Way home Am7 D I'm just waiting til the right time Am7 D When I ride on my little bike
C D Am7 D Am7 D And I know where the peace of mind is

Verse 3:

Am7 D Am7 D See the birds flying on the trees Am7 D Walking in the wood you see the creatures live in nature Am7 D You see the sunrays kiss your face a little Am7 D Am7 D See the fields through the edged trees Am7 D Listen to the sounds, the smells, the colours of the pictures Am7 D Around you feel the changing of the season
C D Am7 D Am7 D And I know where the peace of mind is C D Am7 D Am7 D And I know where the peace of mind is

roll up this ad to continue

share this page

See Also: