The Dutchess And The Duke

Living This Life(Ukulele chords)

The Dutchess And The Duke

Key: G

roll up this ad to continue

	        The Dutchess and the Duke: Living this Life 


Intro: 

G  C  G 
(With the little riffs thrown in. See below) 

G 
If I tear all these walls down, Iím left alone with my memories  
            C                                    G 
theyíre all waiting for me in evenly measured up columns and rows. 
G 
If I walked in your black boots, if I walked in your black dress 
      C                                                  G 
would you hold me tight or just beat me for wearing your clothes? 

Em 
Itís a dangerous lesson 
Am 
to be learned in the dark. 
    G                D 
But itís living this life 
    G                C 
yeah itís living this life 
    G                D 
well itís living this life 
         C - Bm - Am - D - G 
makes it hard. 

G 
Will I ever visit your tombstone, will I ever pay for my crimes 
                 C                       G 
and I ask you if Iím on fire why am I so cold? 
G 
Will I ever walk through the city, will I ever look without seeing your face 
   C                                  G 
On every stranger and every forgotten soul? 

Em 
I donít know if Iíll see you, 
Am 
but Iíll be on my guard 
           G           D 
cause itís living this life 
          G           C 
yeah itís living this life 
          G           D 
well itís living this life 
         C - Bm - Am - D - G 
makes it hard. (Repeat this line x4) 

(Instrumental) 

Em 
When I finally crumble 
Am 
I wonít have to fall too far 
           G           D 
cause itís living this life 
          G           C 
yeah itís living this life 
          G           D 
well itís living this life 
         C - Bm - Am - D - G 
makes it hard. (x4) 


Riffs 
              G                G 
e|----------------------------------| 
B|-----0-1-0------------0-1-0-------| 
G|-0-2-------0------0-2-------0-----| 
D|----------------------------------| 
A|----------------------------------| 
E|----------------------------------| 

              C                G 
e|----------------------0-----------| 
B|-----0-----1------1-3---3-1-0-----| 
G|-0-2---2-0------------------------| 
D|----------------------------------| 
A|----------------------------------| 
E|----------------------------------| 


e|-----------0----------------------| 
B|-----0-1-3---3-1-0----------------| 
G|-0-2---------------2-0------------| 
D|----------------------------------| 
A|----------------------------------| 
E|----------------------------------|
share this page

See Also: