Steam Powered Giraffe

Hatch Fever(Ukulele chords)

Steam Powered Giraffe

Key: E

roll up this ad to continue

Capo on 1st fret
	        
ALSO! listening to the song itself will help you know when to change and what to change to : ) 

STANDARD TUNING: E A D G B E 

 
 : ) 


Main Melody  
--------------------------------------| 
--------------------------------------| 
2-2-2-3-3-3-4-4-4-6-7-6---------------| 
0-0-0-0-0-0-0-0-0-0-0-0---------------| 
--------------------------------------| 
--------------------------------------| 
Then play :- Em A -------------------------------------------------------------------------- D A F#m Em There's a knock, open the door, Em A A human-sized package D A F#m Em Rip through tape, like butter, Em A And cardboard like toast D A F#m Em No time for instructions, the fire's dying, Em A Two birds, one stone D A F#m Em Fill the tank with water, turn the ignition, Em A And Hatchy boy you're ready to go
Faaaaaaaaaarrrr!!!! 
--------------------------------------| 
--------------------------------------| 
2-2-2-3-3-3-4-4-4-6-6-6-6-------------| 
0-0-0-0-0-0-0-0-0-0-0-0-0-------------| 
--------------------------------------| 
--------------------------------------| 
Em A (Catch Hatch Fever!),
Faaaaaaaaaaaarrr! 
--------------------------------------| 
--------------------------------------| 
2-2-2-3-3-3-4-4-4-6-6-6-6-------------|  
0-0-0-0-0-0-0-0-0-0-0-0-0-------------| 
--------------------------------------| 
--------------------------------------|  
Em A (Catch Hatch Fever!) D Em There's a hole, in your floor, A We gotta patch it up D Em Give it a cover, a latch, a hinge, a turn wheel, A Now we're talking hatch fever D A F#m Em Oh what's the worth of living, if you can't make a living, not living, A But faux living D A F#m Em And is there a difference? a fever's a fever, Em A Come on everybody prepare to get catchy
la-la-la-la-la-la-la-la-la-la-la-la-la-lA-la-la-la-la 
--------------------------------------| 
--------------------------------------| 
2-2-2-3-3-3-4-4-4-6-6-6-6-------------|  
0-0-0-0-0-0-0-0-0-0-0-0-0-------------| 
--------------------------------------| 
--------------------------------------|  

 Em            A         
       Catch Hatch Fever! 

la-la-la-la-la-la-la-la-la-la-la-la-la-lA-la-la-la-la  
--------------------------------------| 
--------------------------------------| 
2-2-2-3-3-3-4-4-4-6-6-6-6-------------|  
0-0-0-0-0-0-0-0-0-0-0-0-0-------------| 
--------------------------------------| 
--------------------------------------|  
Em A Catch Hatch Fever! F#m F# Em A Open your heart, to me (played quick) A,A,G#,F#m F#m F Em A Come on everybody, open up that chest cavity (awkward pause)
--------------------------------------| 
--------------------------------------| 
2-2-2-3-3-3-4-4-4-6-6-6-6-------------| 
0-0-0-0-0-0-0-0-0-0-0-0-0-------------| 
--------------------------------------| 
--------------------------------------|  
If you took that last bit of advice, 
   
         Em            A 
You gotta get to the emergency room 


--------------------------------------| 
--------------------------------------| 
2-2-2-3-3-3-4-4-4-6-6-6-6-------------|  
0-0-0-0-0-0-0-0-0-0-0-0-0-------------| 
--------------------------------------| 
--------------------------------------|  
Please don't act out these lyrics, Em A We don't want you to leave so soon D A F#m Em You gotta read instructions, and don't hurt birds, Em A And generally pair your nouns with verbs D A F#m Em Study real hard, Eat your vitamin soup, Em A When all that's finished prepare to catch... D Hatch Disease, Em that sounds bad, A It's not a real disease D A F#m Em But if it were on another world then Em we're sorry, A We wouldn't wish it on anybody D D Unless it makes you stronger, and live longer, Em A Well then thats a good thing wouldn't you agree? D A F#m Em But for now it's just words and a good time, A A A A A A Come on everybody, GET DOWN WITH THE ROBOTS! (Dubstep) F#m F# Em A There's not much left to tell, which hasn't already been stated (played quick) A,A,G#,F#m Fmin F Em A Consider, yourselves 99.9 %, HatchWorth acclimated
la-la-la-la-la-la-la-la-la-la-la-la-la-lA-la-la-la-la 
--------------------------------------| 
--------------------------------------| 
2-2-2-3-3-3-4-4-4-6-6-6-6-------------|  
0-0-0-0-0-0-0-0-0-0-0-0-0-------------| 
--------------------------------------| 
--------------------------------------|  

Em          A 
     Catch Hatch Fever! 

la-la-la-la-la-la-la-la-la-la-la-la-la-lA-la-la-la-la  
--------------------------------------| 
--------------------------------------| 
2-2-2-3-3-3-4-4-4-6-6-6-6-------------|  
0-0-0-0-0-0-0-0-0-0-0-0-0-------------| 
--------------------------------------| 
--------------------------------------|
Em A That should about do it
share this page

See Also: