E-Chords
Passenger

Chasing Gold(Ukulele chords)

Passenger

Key: C
Capo on 6th fret
 
 

Intro 
   G5              Csus2   G5                                Csus2 
E|-------------------0-------------|-------------------------3p0-----| 
B|-0h3-----------3-------3---------|-------3---------------3-------3-| 
G|-----------0---------------------|---0---------------0-------------| 
D|-----0-------0-------0-------0---|-----0-------0-------0-------0---| 
A|-----------------3---------------|-------------------------3-------| 
E|-3-------3---------------3-------|-3-------3-------3---------------| 
   1 e + a 2 e + a 3 e + a 4 e + a | 1 e + a 2 e + a 3 e + a 4 e + a | 
                                                   C/G 
   G5      D       Em      Csus2     G               G 
E|---------------------------------|---------------------------------| 
B|-------3-------0-----------------|---------------1p0---------------| 
G|---0-------2-------2---0-------0-|-----------0---------------0-----|  x2 
D|-----0---0---------------2p0-2---|-----0-------0h2p0---0-------0---| 
A|-------------------------3-------|---------------------------------| 
E|-3---------------0---------------|-3-------3-------3-------3-------| 
   1 e + a 2 e + a 3 e + a 4 e + a | 1 e + a 2 e + a 3 e + a 4 e + a | 
G C G C/G G Well don't spend your life chasing gold Am7 D7 For you only buy what you get sold Am7 C/B C And you only have what you can hold G C G Gsus4 G So don't spend your life chasing gold

Verse 1:

G C G C/G G Don't live your years with a worried mind Am7 D7 Over what you'll lose or leave behind Am7 C/B C For you only keep what you can find G C G C/G G Don't you live your years with a worried mind
Interlude
   G5              Csus2   G5                                Csus2 
E|-------------------0-------------|-------------------------3p0-----| 
B|-0h3-----------3-------3---------|-------3---------------3-------3-| 
G|-----------0---------------------|---0---------------0-------------| 
D|-----0-------0-------0-------0---|-----0-------0-------0-------0---| 
A|-----------------3---------------|-------------------------3-------| 
E|-3-------3---------------3-------|-3-------3-------3---------------| 
   1 e + a 2 e + a 3 e + a 4 e + a | 1 e + a 2 e + a 3 e + a 4 e + a | 
                                                   C/G 
   G5      D       Em      Csus2     G               G 
E|---------------------------------|---------------------------------| 
B|-------3-------0-----------------|---------------1p0---------------| 
G|---0-------2-------2---0-------0-|-----------0---------------0-----|  x2 
D|-----0---0---------------2p0-2---|-----0-------0h2p0---0-------0---| 
A|-------------------------3-------|---------------------------------| 
E|-3---------------0---------------|-3-------3-------3-------3-------| 
   1 e + a 2 e + a 3 e + a 4 e + a | 1 e + a 2 e + a 3 e + a 4 e + a |

Verse 2:

G C G C/G G Don't spend your days with a troubled soul Am7 D7 Filling voids and plugging holes Am7 C/B C Let go of what you can't con-trol G C G C/G G Don't you spend your days with a troubled soul

Bridge:

Dadd4 C G For there's no sense, there's no rhyme and no reason Em Bm To worry 'bout the future and dwell upon the past Am7 Em Live every day of every month and every season Bm Dsus2 D And every moment like your last Yeah
Interlude
   G5              Csus2   G5                                Csus2 
E|-------------------0-------------|-------------------------3p0-----| 
B|-0h3-----------3-------3---------|-------3---------------3-------3-| 
G|-----------0---------------------|---0---------------0-------------| 
D|-----0-------0-------0-------0---|-----0-------0-------0-------0---| 
A|-----------------3---------------|-------------------------3-------| 
E|-3-------3---------------3-------|-3-------3-------3---------------| 
   1 e + a 2 e + a 3 e + a 4 e + a | 1 e + a 2 e + a 3 e + a 4 e + a | 
                                                   C/G 
   G5      D       Em      Csus2     G               G 
E|---------------------------------|---------------------------------| 
B|-------3-------0-----------------|---------------1p0---------------| 
G|---0-------2-------2---0-------0-|-----------0---------------0-----|  x2 
D|-----0---0---------------2p0-2---|-----0-------0h2p0---0-------0---| 
A|-------------------------3-------|---------------------------------| 
E|-3---------------0---------------|-3-------3-------3-------3-------| 
   1 e + a 2 e + a 3 e + a 4 e + a | 1 e + a 2 e + a 3 e + a 4 e + a |
Outro G C G Don't walk your road with a heavy heart Am7 D7sus2 D7 Or lose your light out in the dark Am7 C/B C For every day's a brand new start

roll up this ad to continue

share this page

See Also: