E-Chords
Misc Cartoons

Pokemon Indigo league Theme(Ukulele chords)

Misc Cartoons

Key: Gm
Tab - Intro 

E|------------------------------------------| 
B|------------------------------------------| 
G|------------------------------------------| 
D|-----5------------------------------------| 
A|-5-8--------------------------------------| 
E|------------------------------------------|
Tab - Riff 1 

E|------------------------------------------| 
B|------------------------------------------| 
G|------------------------------------------| 
D|-----5------------------------------------| 
A|-8-5--------------------------------------| 
E|------------------------------------------|
Tab - Riff 3 

E|------------------------------------------| 
B|------------------------------------------| 
G|------------------------------------------| 
D|-10----8----------------------------------| 
A|-8--10-6----------------------------------| 
E|----8-------------------------------------|
Gm F Riff 1 I wanna be the very best Gm F Riff 3 Like noone ever was Eb Bb To catch them is my real test Cm D To train them is my cause Gm F I will travel across the land Gm F Searching far and wide Eb Bb Each Pokemon to understand Cm D The power that's inside Eb Pokemon! Bb It's you and me Eb F I know it's my destiny Gm Pokemon! F Ooh, you're my best friend Bb Cm D In a world we must defend Eb Pokemon! F Our hearts so true Gm F Our courage will pull us through Cm Bb You teach me and I'll teach you Bb Cm D Pokemon Eb Gotta catch 'em all! F Gm Gotta catch 'em all! Gm F Every challenge along the way Gm F With courage I will face Eb Bb I will battle every day Cm D To claim my rightful place Gm F Come with me, the time is right Gm F There's no better team Eb Bb Arm in arm we'll win the fight Cm D It's always been our dream Eb Pokemon! Bb It's you and me Eb F I know it's my destiny Gm Pokemon! F Ooh, you're my best friend Bb Cm D In a world we must defend Eb Pokemon! F Our hearts so true Gm F Our courage will pull us through Cm Bb You teach me and I'll teach you Bb Cm D Pokemon Eb Gotta catch 'em all! F Gm Gotta catch 'em all!

roll up this ad to continue

share this page

See Also: