Merle Haggard

Me And Crippled Soldiers(Ukulele chords)

Merle Haggard

Key: E

roll up this ad to continue

	        
Intro: 

e|--------------------------------------------------------------------------------------| 
B|--------------------------------------------------------------------------------------| 
G|--------------------------------------------------------------------------------------| 
D|---------------------2-4/6-6-6-6-6-4-6-6b-6-4-2---2---2-2h4-2---------------------2---| 
A|--0-2-2-2-2-2-2-4-2-----------------------------4---4---------4-2--------4-3-2--4---4-| 
E|------------------------------------------------------------------0-2-0---------------| 

e|-------------------------------------| 
B|-------------------------------------| 
G|-------------------------------------| 
D|--4/6-4-6-6b-6-4-2----2-2h4-2p0------| 
A|--------------------4----------------| 
E|-------------------------------------|
E Now that itís all right To burn the stars and stripes A E Guess nobody really needs old Uncle Sam B7 Might as well burn the Bill Of Rights, as well And let our country go straight to hell E B7 E Only me and crippled soldiers give a damn A Should they throw away their Purple Hearts And hide their uniforms E And be proud to hear Old Gloryís on the ground Somebody said theyíd take us without firing a shot A E I donít know if they will or not B7 E But only me and crippled soldiers give a damn Solo E Has the Holocaust been so long Is Hitler really gone A E As we burn our only cause, for Vietnam B7 Thereís the mom who lost a son Is this the freedom that we won E B7 E For only me and crippled soldiers give a damn A Iíve been known to wave the flag before And saddened when we went to war E Fighting for the symbol of our land For all the wars we fought and won A E To keep Old Glory waving B7 E Today, they ruled to burn Old Glory down B7 E And only me and crippled soldiers give a damn
share this page

See Also: