Men I Trust

Billie Toppy(Ukulele chords)

Men I Trust

Key: D

roll up this ad to continue

	        
Intro 

Main riff: 
   D5         C5 
e|-------------------| 
B|-------------------| 
G|-------------------| 
D|-0-----0-0-0-0-0-0-|x2 
A|-5-----0-3-0-3-0-3-| 
D|-0-0-0-0-0-0-0-0-0-| 

   D5         C5     F5    G5 
e|-----------------------------------------| 
B|-----------------------------------------| 
G|-----------------------------------------| 
D|-------0-0-0-0-0-0-0-0-0-------0-0-0-0-0-| 
A|-------0-3-0-3-0-3-3-3-3-------3-3-3-3-3-| 
D|-0-0-0-0-0-0-0-0-0-3-3-3-------5-5-5-5-5-| 
                   (alt picking:) 
                  e|-------------------------| 
                  B|-------------------------| 
                  G|-------------------------| 
                  D|-----0-----0-----0-----0-| 
                  A|---3-----3-----3-----3---| 
                  D|-3-----3-----5-----5-----|
D5 C5 D5 C5 D5 C5 F5 (main riff) D5 C5 D5 C5 D5 C5 F5 (main riff w/ alt picking)

Verse 1:

D5 Billie cares to hold me F5 Bb5 G5 Eb5 D5 C5 But I found Iím bound and headed upside down (main riff (begining)) D5 Billie dressing easy F5 Bb5 G5 Eb5 D5 C5 D5 C5 And I do enjoy the way he tucks me now (main riff (begining x1)) G5 Bb5 D5 C5 D5 C5 Pulley Beeí dragging me around (main riff (begining))

Verse 2:

D5 Billie cares to wake me F5 Bb5 G5 Eb5 D5 C5 D5 C5 And Iíll bend my knees neatly to its needs (main riff (begining)) D5 Billie will be tidy F5 Bb5 G5 Eb5 D5 C5 D5 C5 Tough as rocky streams, steady is the speed (main riff (begining x1)) G5 Bb5 D5 C5 D5 C5 Pulley Beeí, hauling is your creed (main riff (begining))
 riff: 
  Bb       C 
e|-------1-----0-1-| 
B|-----1-----1-----| 
G|---3-------------| 
D|-----------------| 
A|-1-------3-------| 
E|-----------------|
Bb C Your Heels twist in a ballet Bb C Whenever youíre in pain, donít turn to blame Bb C You see a lamb whoís fast asleep C Dm Please donít go out to stray

Verse 3:

D5 C5 D5 C5 (main riff (begining)) D5 Billie by my lips dear F5 Bb5 G5 Eb5 D5 C5 D5 C5 I can almost taste the smoky trail of myrrh (main riff (begining)) D5 Whispers in my left ear F5 Bb5 G5 Eb5 D5 C5 And I swear, youíre near, the wary one I hear (main riff (begining x1)) G5 Bb5 C5 D5 C5 Pulley Beeí, idles in high gear (main riff (begining))

Bridge:

Bb C Bb C Bb C Oh, oh
Bb C Bb Your Heels twist in a ballet (Youíre Stuck in a ballet) Bb C Bb Whenever youíre in pain, donít turn to blame (Please, donít turn to blame) Bb C Bb You see a lamb whoís fast asleep (Please, donít go out to stray) Bb C Bb Your Heels twist in a ballet (Youíre Stuck in a ballet) Bb C Bb Whenever youíre in pain, donít turn to blame (Please, donít turn to blame) Bb C You see a lamb whoís fast asleep C Dm Please, donít go out to stray D5 C5 D5 C5 (main riff (begining))

Written by Men I Trust

share this page

See Also: