E-Chords
Los Ratones Paranoicos

Damas Negras(Ukulele chords)

Los Ratones Paranoicos

Key: F#
Es un blues los acordes van con martilleo. 

Riff: 


  F#5 (8x)      B5 (8x)    F#5 (8x)    C5 (8x) 
E|--------------------------------------------------| 
B|--------------------------------------------------| 
G|--------------------------------------------------| 
D|--------------------------------------------------| 
A|-4-6-4--------9-11-9-----4-6-4-------11-13-11-----| 
E|-2-2-2--------7-7-7------2-2-2-------9--9--9------| 


La segunda guitarra hace esto: 
E|--------------------------------------------------| 
B|--------------------------------------------------| 
G|--------------------------------------------------| 
D|-7b-4--4------------------------------------------| 
A|------7-------------------------------------------| 
E|--------------------------------------------------| 



F#5 
Es sábado a la noche 

B5 
No quiero estar acá 

F#5 
Si espero que ella venga 

C5 
Me voy a derrumbar 


F#5 
Cruzando la avenida 

B5 
Me tengo que apurar 

F#5 
El bar queda en la esquina 

C5 
Me trato colar 


F#5          B5 
Damas negras en el mostrador 

F#5              C5 
Bailan llenas de alcohol y vapor 

 

roll up this ad to continue

share this page

See Also: