E-Chords
Los Invasores De Nuevo León

Para Tí Mi Amor(Ukulele chords)

Los Invasores De Nuevo León

Key: D
    -entrada- 


           D  E7                   A 
e--0-0-4-4-2--4-4-2-2-0-0-----2-2--5-- 
b--2-2-5-5-2--5-5-3-3-2-2-3-3-3-3--5-- 
g----------3--------------4-4------6-- 
d----------0-----------------------7-- 
a----------------------------------7-- 
e------------------------------------- 


   A       G7    F#7         Bm 
e--0-0-0-0----------------------2--- 
b--2-2-2-2-3-3-3-------------3--3--- 
g----------4-4-4-2-2-2-1-----4--4--- 
d------------------------4-2----4--- 
a-------------------------------2--- 
e-------------------------------2--- 


  E7                  A 
e---------------------5-- 
b---------------------5-- 
g-1-1-1-1-1-1-1-2-4-4-6-- 
d---------------------7-- 
a---------------------7-- 
e------------------------ 



             A 
Para ti mi amor 

Que tienes un gran corazón 

Eres fiel y con amor 

    A7       D 
Me sabes querer 


Para ti mi amor 

   E7                     A 
Escribo este poema porque se 

     F#7                     Bm 
Que tienes la virtudes en tu ser 

E7           A 
Que yo he soñado 


           D 
Para ti mujer 

     E7                  A     G7 
Que sabes eludir adversidades 

    F#7                   Bm 
No sabes y no te gusta mentir 

 E7                        A 
Para mi corazón eres muy grande 


              D 
Cuando te conocí 

   E7                       A 
Recuerdo eras flor en primavera 

 F#7                    Bm 
Jamás imagine que me quisieras 

  E7                       A 
Jamás pensaba ser dueño de ti 


    -solo similar a entrada- 


              D  E7                   A 
e--0-0-4-4-2--4-4-2-2-0-0-----2-2--5-- 
b--2-2-5-5-2--5-5-3-3-2-2-3-3-3-3--5-- 
g----------3--------------4-4------6-- 
d----------0-----------------------7-- 
a----------------------------------7-- 
e------------------------------------- 


   A       G7    F#7         Bm 
e--0-0-0-0----------------------2-- 
b--2-2-2-2-3-3-3-------------3--3-- 
g----------4-4-4-2-2-2-1-----4--4-- 
d------------------------4-2----4-- 
a-------------------------------2-- 
e-------------------------------2-- 


  E7                  A 
e---------------------5-- 
b---------------------5-- 
g-1-1-1-1-1-1-1-2-4-4-6-- 
d---------------------7-- 
a---------------------7-- 
e------------------------ 



           D 
Para ti mujer 

    E7                       A     G7 
Que eres en mi vida fe y consuelo 

      F#7                        Bm 
No te haz de imaginar cuanto te quiero 

    E7                          A 
No sabes cuanto me haz hecho feliz 


                A7           D 
Por que hoy que veo la realidad 

    E7                           A     G7 
Si quieres tu bien puedes reprocharme 

    F#7                    Bm 
Si tuve alguna duda de tu amor 

    E7                    A 
Perdóname no quería equivocarme 


        D 
Es para ti mi amor 

           E7 
Que en la vida 

                          A 
Me haz dado tantas cosas bellas 

G7         F#7 
Por que tu eres todo 

F#7 
Eres un amor 

Bm 
Eres un regalo de dios 

E7                  A 
Tu eres mi estrella. 


    -salida- 


  E7  A       F         A 
e-0---5-|---------------5-- 
b-5---5-|---------------5-- 
g-7---6-|-1-2-----------6-- 
d-6---7-|-----2-3-------7-- 
a-7---7-|---------3-4---7-- 
e-------|-------------4---- 


nota: acordes en tablatura son ilustrativos y referencia, pueden ser 
mucho mas de un rasgueo. es una guia a interpretación del interprete. 

roll up this ad to continue

share this page

See Also: