E-Chords
Kleberiano

Comedor De Cu(Ukulele chords)

Kleberiano

Key: Cm
Intro: C5  Ab5  G5 

C5            Ab5     
   Se não dormir a noite 
       G5        C5 
Ele vai te pegar 

Te levar da sua cama 
        Ab5       G5  C5 
Pro seu cu arrombar 
                Ab5 
O comedor de cu 
          G5       C5 
Não perdoa ninguém 
         Ab5 
Vai comer o seu cu 
            G5      Ab 
E o da sua mãe também 

C5              Ab5         G5 
   A rola dele parece um bambu 
C5                   Ab5     G5 
Eu tenho medo do comedor de cu 

C5        Ab5        G5 
A rola dele parece um bambu 
C5     Ab5          G5 
Eu tenho medo do comedor de cu 
C5       Ab5         G5 
Eu tenho medo, do comedor de cu 

C5         Ab5        G5 
No meio da noite eu acordei 
      C5            Ab5      G5 
Estava com sede, então levantei 
C5              Ab5      G5 
Tinha alguém sentado no sofá 
      C5             Ab5          G5   Ab5 
É o comedor de cu, ele vai me arrombar 

C5          Ab5         G5 
A rola dele parece um bambu 
C5                 Ab5 
Eu tenho medo do comedor de cu 
C5           Ab5         G5 
A rola dele parece um bambu 
C5              Ab5         G5 
Eu tenho medo do comedor de cu 
C5     G5 Ab5     G5    C5 
Fui capturado pelo come cu 
         G5 Ab5    G5      C5 
Ele arrombou, alargou o meu cu 
C5     G5 Ab5        G5   C5 
Fui capturado pelo come cu 
       G5 Ab5 G5         C5     
Ele arrombou, alargou o meu cu 

Solo 

E|---------------------------------------------------------| 
B|--------8-6-6-4-4-4-3~---3-3-3-4-3-3-4-------------------| 
G|--5-5-5--------------------------------4-5---------------| 
D|---------------------------------------------------------| 
A|---------------------------------------------------------| 
E|---------------------------------------------------------|
E|---------------------------------------------------------| 
B|--------8-6-6-4-4-4-3~---3-3-3-4-3-----------------------| 
G|--5-5-5--------------------------------------------------| 
D|---------------------------------------------------------| 
A|---------------------------------------------------------| 
E|---------------------------------------------------------|
( C5 Ab5 G5 C5 ) C5 Eu tenho medo do comedor de cu

roll up this ad to continue

share this page

See Also: