E-Chords
Hummersqueal

Cómo Te Va?(Ukulele chords)

Hummersqueal

Key: Eb
x#    x Veces 
/     Slide 
PM    Palm Mute 
P     Pull Off 
H     Hammer On 

Tuning: Standard Eb (medio tono abajo) 



     B  Ebm  Gb  Ab  Cm  Db 

Eb|--0---0---3---0---4---2--| 
Bb|--1---0---0---3---5---3--| 
F#|--0---0---0---3---6---2--| 
C#|--2---2---0---3---6---0--| 
G#|--3---2---2---0---4---0--| 
Eb|----------3-------4------| 


Intro: 


B  Ebm  Gb   B   Ebm  Gb Ebm B  Gb Ebm  Gb  B  Ebm  Gb Ebm   B 



                 Gb    Ebm       Gb 
Tu me dijiste todo iba a cambiar             Desde cuanto tiempo 


B                     Ebm         Gb  Ebm  B 
No se lo que paso, no se lo que paso!! 


                Gb  Ebm       Gb 
De este tiempo todo sigue igual              Desde cuanto tiempo 


B 
Si tu te vas, yo se que hare sin ti 


Eb|-----------------------------------------------------| 
Bb|-5-3------5P3------------------3H5-3-----5-3---------| 
F#|-----0-----------------------2-----------------------| 
C#|--------------7/5-5/3-3----5-----------------7-5/3-3-| 
G#|-----------------------------------------------------| 
Eb|-----------------------------------------------------| x2 



Ab              Cm 
Y, dime como has estado 


       Ab 
tu sin mi 


                Cm 
dime si te ha afectado 


      Dm                                 Ab 
mi partir... yo se que tu no vas a cambiar 


                   Cm 
y crees que estaba esperando 


       Ab 
no es asi 


                    Cm 
de hecho ya no extraño tanto 


     Db 
combatir 


                             Ab 
ya no quiero verte junto a mi 


        Db 
que mas da 


                      Ab 
alguien ocupo ya tu lugar 



     Eb      E      Cb            Db 
Eb|------------------------------------------| 
Bb|------------------------------------------| 
F#|--9-------10---------5---5-5-5-/-7--7-7---| 
C#|--x-------x----------x---x-x-x-/-x--x-x---| 
G#|--7-------8------3-3-3---3-3-3-/-5--5-5---| 
Eb|--x-x16---x-x16--x-x-x---x-x-x-/-x--x-x---| x2 


Eb|------------------------------------------| 
Bb|------------------------------------------| 
F#|--9-----9----10-------5--------9---12/-5--| 
C#|--x-----x----x--------x--------x---x-/-x--| 
G#|--7-----7----8----3-3-3----5-5-7---10/-3--| 
Eb|--x-x8--x-x8-x----x-x-x----x-x-x---x-/-x--| 

     |PM| 


Tabbed By: Ivan Paredes 

roll up this ad to continue

share this page

See Also: