Grace Phipps

Falling For Ya(Ukulele chords)

Grace Phipps

Key: D

roll up this ad to continue

	        
Intro 

A|-5--2--0----2-0--0-2--------------------| 
E|---------2--------------0--2--0----0----| 
C|---------------------2-----------2------| 
G|----------------------------------------| 

Verse 1:

D Bm The day started ordinary Em A Boys walking by (ooo ooo) D Bm It was the same old story Em A Too fresh or too shy (ooo ooo) F# Iím not the kind to fall for a guy G Who flashes a smile (It goes on for miles) Em Donít usually swoon A But Iím over the moon (Cause he was just too cool for school)
A And now Iím D Bm Falling for ya, falling for ya Em A I know I shouldnít but I I just canít stop myself from D Bm Falling for ya, falling for ya Em A Canít hold on any longer D And now Iím falling for you
Fill 

A|-5--2--0----2-0--0-2--------------------| 
E|---------2--------------0--2--0----0----| 
C|---------------------2-----------2------| 
G|----------------------------------------| 

Verse 2:

D Bm Now weíre going steady Em A Heís the catís meow (Meow Meow!) D Bm He says Iím a betty Em A And we paint the town (ooo ooo) F# Iím not the kind to fall for a guy G Just cause he says hi (when heís cruisin by) Em Heís ready to race A And Iím catching his gaze (Theyíll go on like this for days)
A And now Iím D Bm Falling for ya, falling for ya Em A I know I shouldnít but I I just canít stop myself from D Bm Falling for ya, falling for ya Em A Canít hold on any longer D And now Iím falling for you

Bridge:

D Bm It feels like I tumbled from another world A D Into your arms and itís so secure Bm Em Maybe Iíll stumble but I know for sure A D Head over heels Iím gonna be your girl
Interlude 

A|-4-5-555-7-9-2--4-5-7--910--5-2-0-| 
E|----------------------------------| 
C|----------------------------------| 
G|----------------------------------| 

A|-4-5-555-2-5-7/9-5-7-9/10-9-7-5-7-0---| 
E|--------------------------------------| 
C|--------------------------------------| 
G|--------------------------------------| 

A|-2-0-0-2-9----0-2-9-7--5-7-5-2--2-5-7-9-2-| 
E|---2-----9---2----9-----------------------| 
C|---------9--------9-----------------------| 
G|---------11-------11-----6----------------| 

A|-2-0-0-2-7/9-7-5---2-5-7/9-7-5-7-7-5-7-7-5-7| 
E|---2-------------4-----------9-7-5-9-7-5----| 
C|--------------------------------------------| 
G|--------------------------------------------| 
A And now Iím D Bm Falling for ya, falling for ya Em A I know I shouldnít but I I just canít stop myself from D Bm Falling for ya, falling for ya Em A Canít hold on any longer D And now Iím falling for you
Fill 

A|-5--2--0----2-0--0-2--------------------| 
E|---------2--------------0--2--0----0----| 
C|---------------------2-----------2------|  x2 
G|----------------------------------------| 

Written by Aristeidis Archontis/Jeannie Lurie/Chen Neeman

See Also: