Dragon Ball GT

Bit By Bit I'm Falling Under Your Spell(Ukulele chords)

Dragon Ball GT

Key: G

roll up this ad to continue

	        
Intro Gadd11 

e|------------------------------------| 
B|------------------------------------| 
G|----0-----0-----0---0---------------| 
D|-------3-----2----0-----------------| 
A|------------------------------------| 
E|------------------------------------| 
C G Bit by bit, Iím falling under your spell Am Em Your smileís all I need to see to know weíll F C Am Bb G G# Bb C Leave this endless darkness, saying, ďCome along with me!Ē Hold my hand
e|----4-3----------|----6-4-3--------------| 
B|--------6-4-3-4--|--3-------6-4-6---5----| 
G|--5--------------|-----------------------| 
D|-----------------|-----------------------| 
A|-----------------|-----------------------| 
E|-----------------|-----------------------| 

e|---------------------------------------| 
B|-1---1---1---1---1---1---1-------------| 
G|---4---2---0---------------------------| 
D|---------------3---2---0---------------| 
A|---------------------------------------| 
E|---------------------------------------| 
Verse Fm Bb Gm7 Back when you first came into my life, Cm Fm G7 Cm Eb I recalled a place that I knew as a child: a special place, one that I held close to my heart G# Bb Gm7 Wonít you lead me in a dance down this winding road, Cm Fm G7 Cm Eb Where light and shadow entwine to take hold of the thoughts of the one left far behind? G# Gm7 Know that sometimes, I want to turn around and see the things that Iíve passed on the journey, Cm Fm Bb G But know with love on my side, with courage and pride, Iíll fight; I will carry on
e|------------------------------------| 
B|------------------------------------| 
G|----0-----0-----0---0---------------| 
D|-------3-----2----0-----------------| 
A|------------------------------------| 
E|------------------------------------| 
C G Bit by bit, Iím falling under your charm Am Em Youíll keep me and all the world far from harm F C Am Bb G Bring hope to everyone; take in your hands eternity C G Even when it seems that I donít need you, Am Em Just know that I am in love; canít wait to F C Am Bb G G# Bb Csus4 C Leave this endless darkness. Wonít you come along with me? Hold my hand
e|----4-3----------|----6-4-3-----------------| 
B|--------6-4-3-4--|--3-------6-4-6-8---8-6-5-| 
G|--5--------------|--------------------------| 
D|-----------------|--------------------------| 
A|-----------------|--------------------------| 
E|-----------------|--------------------------|
share this page

See Also: