E-Chords
Ccero Rossi

Doce Veneno(Ukulele chords)

Ccero Rossi

Key: F
Intro F  Bb  C  Bb  A 
      Dm  Bb  C  F  C  

Tab - Solo Intro 

Parte 1 de 6 
E|-------------------------------| 
B|-------------------------------| 
G|----2-3/5-5-5-5-5/7--5-3-2-3/5-| 
D|--3----------------------------| 
A|-3------------------------| ‐----| 
E|--------------------------| ‐----|
Parte 2 de 6 
E|--------------------------| ‐----| 
B|-8--6--5------------------| ‐----| 
G|-9--7--5------------------| ‐----| 
D|--------------------------| ‐----| 
A|--------------------------| ‐----|
E|--‐-----------------------‐----|
Parte 3 de 6 
E|-----8-10-10--10--9-10-12-----| ‐| 
B|--10---------------------------| 
G|10-----------------------------| 
D|-------------------------------| 
A|-------------------------| ‐---‐-| 
E|-------------------------| ‐-‐---|
Parte 4 de 6 
E|-------12-13--------17-15------| 
B|----14-----------15-------18---| 
G|-14----------------------------| 
D|-------------------------------| 
A|--------------------------| ‐----| 
E|--------------------------| ‐----|
Parte 5 de 6 
E|-------------------------------| 
B|-17-15~----18-17-15------------| 
G|--------------------17-15-14---| 
D|-------------------------------| 
A|--------------------------| ‐----| 
E|--------------------------| ‐----|
Parte 6 de 6 
E|-------------------------------| 
B|--------------18-17/-----------| 
G|-14-15-17----------------------| 
D|----------17-------------------| 
A|-------------------------------| 
E|--------------------------| ‐----|
F Bb F No vale a pena amar do jeito que eu amei Bb A Dm No vale a pena me entregar sem ser amado Bb C F Dm Tudo que eu quis foi ter voc em mim Bb A Dm O meu corao foi seu abrigo Bb C F Dm Mas eu te confesso que no fui feliz Bb A Dm Eu no fui amado como eu sempre quis Bb C F No vale a pena no vale a pena Dm Bb No, no, no, no, no A7 Dm O seu beijo doce me envenena ( F Bb C Bb A ) ( Dm Bb C F C )

roll up this ad to continue

share this page

See Also: