E-Chords
Brenno e Matheus

Cabaré Love(Ukulele chords)

Brenno e Matheus

Key: Bm
Tab - Riff 

E|-----------------------------------------| 
B|-------5-5h6-----------------------------| 
G|---6/7--------7-5-7----------------------| 
D|-----------------------------------------| 
A|-----------------------------------------| 
E|-----------------------------------------|
G A Eu já assinei o contrato e aluguei um Bm Estabelecimento G Comprei umas mesa de A Lata e uma jukebox com Bm As moda do momento G Eu divulguei o meu A Negócio paga meia na Bm Cerveja com carteirinha de sócio G O endereço não precisa A Neim fala onde tem néon Bm Vermelho e fumaceira e só chega Refrão G Eu montei foi uma zona A Vem pro Cabaré Love Bm Vamo consumir o estoque
E|-----------------------------------------| 
B|-------5-5h6-----------------------------| 
G|---6/7--------7-5-7----------------------| 
D|-----------------------------------------| 
A|-----------------------------------------| 
E|-----------------------------------------|
E|-------5-5h7-------7-7-------------------| 
B|--7-7---------5-5-------10-10h12---------| 
G|-----------------------------------------| 
D|-----------------------------------------| 
A|-----------------------------------------| 
E|-----------------------------------------|

roll up this ad to continue

share this page

See Also: