Black Rebel Motorcycle Club

Lullaby(Ukulele chords)

Black Rebel Motorcycle Club

Key: E

roll up this ad to continue

	        
Riff 1: 

E|----------------------------------------------------| 
B|--0--1--3--3--------12--12--12--12--12--12---0------| 
G|--0--0--0--0--0------x---x---x---x---x---x---x------| 
D|--0--0--0--0--0------0---0---0---0---0---0---0------| 
A|--0--0--0--2--2-----10--10--10--10--10--10---10-----| 
E|--3-------------------------------------------------| 

Riff 2:  

E|-----------------------------------------------------| 
B|-----1--3--5--5-----12--12--12--12--12--12--0--------| 
G|--0--0--0--0--0------x---x---x---x---x---x--x--------| 
D|--0--0--0--0--0------0---0---0---0---0---0--0--------| 
A|--0--0--0--0--3-----10--10--10--10--10--10--10-------| 
E|--3--------------------------------------------------| 
Intro: Riff 1 (3x) + Riff 2 Riff 1 You are the sun to the earth Riff 1 You are the light of this world Riff 1 Won't you see Riff 2 Why won't you see Riff 1 You are an arm I can't reach Riff 1 You are the words I can't speak Riff 1 Won't you say Riff 2 Why won't you say D C Riff 1 I will walk 'til I've no shadow D C Riff 1 I will walk 'til I've no shadow C G You twist the light in your hands D It moves and sparks C It's all the love you can give G Reasons fall from every storm that you lift Em D C We move through the dark, helpless Riff 1 You are the quiet in my soul Riff 1 You are the pieces of gold Riff 1 Won't you shine Riff 2 Why won't you shine D C Riff 1 I will walk 'til I've no shadow D C Riff 1 I will walk 'til I've no shadow D C Riff 1 I will walk 'til I've no shadow D C Riff 1 I will walk 'til I've no shadow Em D C G (x4)

Written by Leah Shapiro, Peter Hayes, Robert Been

share this page

See Also: