E-Chords
Bertin Gomez Jr.

Flor Silvestre(Ukulele chords)

Bertin Gomez Jr.

Key: C
e-0-0-0-1-3-0-1-3-5-6p5---6p5---5-3-1- 
B-1-1-1-3-5-1-3-5-6-----6-----6--5--3- 


e-0-0-0-0-1-0-0-1-3--3---1--0- 
B-0-0-0-1-3-0-1-3-5-5-5-3-3-1- 

e-------0-0---0-0-1-----8--8--8--7-7-7---5-3-1-0- 
B-1-1-1-0-1-1-0-1-3---10-10-10-8---8-8--6-5-3--1- 
G-2-2-2-----2------------------------------------ 


e---0-3-3-3p0-0-- 
B--1-----------1- 
G-0-------------- 



C                     Dm  G 
Flor silvestre amada mia 

                  C     Am 
dueña de todo mi amor 

                  Dm 
eres la flor mas hermosa 

         G           C 
que escogio mi corazon 


e---0-3-3-3p0-0-- 
B--1-----------1- 
G-0-------------- 



C                     Dm    G 
te quiero mas que a mi vida 

                C     Am 
eso lo sabes muy bien 

                    Dm 
flor silvestre amada mia 

           G           C 
siempre siempre te amare 


e---0-3-3-3p0-0-- 
B--1-----------1- 
G-0-------------- 


C          C7          F      G 
mientras dios me de licencia 

                  C     Am 
tu seras mi consentida 

                 Dm 
tu seras lo que mas quiera 

           G           C 
flor silvestre amada mia 


(REQUINTO) 


C                     Dm    G 
te quiero mas que a mi vida 

                  C     Am 
eso lo sabes muy bien 

                     Dm 
flor silvestre amada mia 

           G           C 
siempre siempre te amare 



C          C7          F      G 
mientras dios me de licencia 

                  C     Am 
tu seras mi consentida 

                 Dm 
tu seras lo que mas quiera 

           G           C 
flor silvestre amada mia 



C          C7          F      G 
mientras dios me de licencia 

                  C     Am 
tu seras mi consentida 

                 Dm 
tu seras lo que mas quiera 

           G           C 
flor silvestre amada mia 

roll up this ad to continue

share this page

See Also: