Arctic Monkeys

Body Paint(Ukulele chords)

Arctic Monkeys

Key: Dm

roll up this ad to continue

	        
Intro Bb7M  A7 

Tab - Intro 

E|-13--------------------15-----------------| 
B|------15-------------------15-------------| 
G|-----------15--14--12---------------------| 
D|------------------------------------------| 
A|------------------------------------------| 
E|------------------------------------------|
E|-13--------------------15-----------------| 
B|------15-------------------15-------------| 
G|-----------15--14--12---------------------| 
D|------------------------------------------| 
A|------------------------------------------| 
E|------------------------------------------|
E|-13--------------------15------13---------| 
B|------15-------------------15-------------| 
G|-----------15--14--12---------------------| 
D|------------------------------------------| 
A|------------------------------------------| 
E|------------------------------------------|
Primeira Parte
Tab - Primeira Parte 

E|-13--------------------15-----------------| 
B|------15-------------------15-------------| 
G|-----------15--14--12---------------------| 
D|------------------------------------------| 
A|------------------------------------------| 
E|------------------------------------------|
E|-13--------------------15------13---------| 
B|------15-------------------15-------------| 
G|-----------15--14--12---------------------| 
D|------------------------------------------| 
A|------------------------------------------| 
E|------------------------------------------|

Verse 1:

Bb7M A7 For a master of deception and subterfuge Dm Gm You've made yourself quite the bed to lie in Bb7M A7 Do your time traveling through the tanning booth Dm Gm So you don't let the Sun catch you crying Eb D7 Cm7 So predictable, I know what you're thinking

Verse 2:

Bb7M A7 My teeth are beating and my knees are weak Dm Gm It's as if there's something up with the wiring Bbm7 A7 You can poke your head behind the mountain peak Dm Gm It don't have to mean that you've gone into hiding Eb D7 Cm7 So predictable, I know what you're thinking
( Cm7 C# C# D G )

Verse 3:

G Gm7 G7 I'm watching your every move G6 Em I feel the tears are coming on C It won't be long Am It won't be long G Gm7 G7 Straight from the cover shoot G6 Em There's still a trace of body paint C Am On your legs and on your arms and on your face G Gm7 G7 And I'm keeping on my costume G6 Em And calling it a writing tool C And if you're thinking of me Am I'm probably thinking of you
( Eb G Eb G ) ( Eb G Eb G Eb G ) ( Ebm Bb Bb7M ) Final
Tab - Final 

E|------------------------------------------| 
B|------------------------------------------| 
G|-8b10r8--5b7r5--3-5--5b7--7--7r5----------| 
D|------------------------------------------| 
A|------------------------------------------| 
E|------------------------------------------|
E|------------------------------------------| 
B|------------------------------------------| 
G|-3----------------------------------------| 
D|----5--3h5--3-----------------------------| 
A|---------------3h5-p3/6~------------------| 
E|------------------------------------------|
E|------------------------------------------| 
B|------------------------------------------| 
G|-8-8-7-8-8b10r8---7-7-5-3-----------------| 
D|------------------------------3h5-5-5-5-5-| 
A|--------------------------/5--------------| 
E|------------------------------------------|
E|------------------------------------------| 
B|------------------------------------------| 
G|-8b10r8--5b7r5--3-5--5b7--7--7r5----------| 
D|------------------------------------------| 
A|------------------------------------------| 
E|------------------------------------------|
E|------------------------------------------| 
B|------------------------------------------| 
G|-3----------------------------------------| 
D|----5--3h5--3-----------------------------| 
A|---------------3h5-p3/6~------------------| 
E|------------------------------------------|
E|------------------------------------------| 
B|------------------------4-----4-----------| 
G|------8-----8-----7-----5-----5-----------| 
D|------8-----8-----7-----5-----5-----------| 
A|------6-----6-----5-----3-----3-----------| 
E|------------------------------------------|
E|------------------6-8-9-10-9-8-6~---------| 
B|------------------------------------------| 
G|-5br-5br-5br-5br--------------------------| 
D|------------------------------------------| 
A|------------------------------------------| 
E|------------------------------------------|
E|------------------------------------------| 
B|----------------------8br--8-6------------| 
G|-10r8-7---8br-8br-8br----------7-5-3------| 
D|-------------------------------------5----| 
A|------------------------------------------| 
E|------------------------------------------|
E|------------------------------------------| 
B|--4-3-4-3-4-3-----------------------------| 
G|--------------3--5b7r5--b7r5--b7r5~-------| 
D|------------------------------------------| 
A|------------------------------------------| 
E|------------------------------------------|
E|------------------------------------------| 
B|--9b11r9--8-7~----------------------------| 
G|------------------------------------------| 
D|------------------------------------------| 
A|------------------------------------------| 
E|------------------------------------------|
Final D#5 D5 There's still a trace of body paint Cm D#5 On your legs and on your arms and on your face D5 There's still a trace of body paint Cm D#5 On your legs and on your arms and on your face D5 There's still a trace of body paint Cm D#5 On your legs and on your arms and on your face D5 There's still a trace of body paint Cm D#5 On your legs and on your arms and on your face D5 Cm So predictable, I know what you're thinking Ooh, hah, yeah

Written by Alex Turner

share this page

See Also: