E-Chords
You Me And Everyone We Know

Raise Them Bones(Tabs)

You Me And Everyone We Know

roll up this ad to continue

eb|-------------------------------------------------------------------| 
Bb|-------------------------------------------------------------------| 
Gb|-------------------------------------------------------------------| 
Db|--00022200022200220002220002220022---------------------------------| 
Ab|--333333333333333333333333333333335-5-5-5-5-5-5-5-5-5-5-5-5-5-5-5--| 
Eb|----------------------------------3-3-3-3-3-3-3-3-3-3-3-3-3-3-3-3--| 
     ................................ 

eb|-------------------------------------------------------------------| 
Bb|-------------------------------------------------------------------| 
Gb|-------------------------------------------------------------------| 
Db|--00022200022200220002220002220022---------------------------------| 
Ab|--333333333333333333333333333333335-5-5-5-5-5-5-5-5-5-5-5-5-5-2-2--| 
Eb|----------------------------------3-3-3-3-3-3-3-3-3-3-3-3-3-3-0-0--| 
     ............................ 
      
eb|-------------------------------------------------------------------| 
Bb|-------------------------------------------------------------------| 
Gb|-------------------------------------------------------------------| 
Db|-------------------------------------------------------------------| 
Ab|--3-3--3-3-3--7-5-5--5-5-5--5-3-3--3-3-3--7-5-5--5-5-5--5----------| 
Eb|--1-1--1-1-1--5-3-3--3-3-3--3-1-1--1-1-1--5-3-3--3-3-3--3----------|      
         
eb|-------------------------------------------------------------------| 
Bb|-------------------------------------------------------------------| 
Gb|-------------------------------------------------------------------| 
Db|-------------------------------------------------------------------| 
Ab|--3-3--3-3-3--7-5-5--5-5-5--5-3-3--3-3-3--7-5-5--5-5-5--5----------| 
Eb|--1-1--1-1-1--5-3-3--3-3-3--3-1-1--1-1-1--5-3-3--3-3-3--3----------|      

eb|-------------------------------------------------------------------| 
Bb|-------------------------------------------------------------------| 
Gb|-------------------------------------------------------------------| 
Db|--5--5--5-4-5-4-5--5--5--------------------------------------------| 
Ab|--3--3--3-2-3-2-3--3--3--------------------------------------------| 
Eb|-------------------------------------------------------------------| 
share this page

See Also: