E-Chords
You Me And Everyone We Know

A Pleasant Bummer(Tabs)

You Me And Everyone We Know

roll up this ad to continue

Tuning: EADGBe 


You'll have to grab the exact rhythms from the song but these are the correct chords for the song. 
It's just chords right now, but I'm trying to add the lead in later! 
Enjoy! 


Verse: 
e|---------------------------------------------------------------------------| 
B|---------------------------------------------------------------------------| 
G|---------------------------------------------------------------------------| 
D|---9-------4--------------6-----4------------------------------------------|   (x4) 
A|---9-------4----(x3)------6-----4------------------------------------------| 
E|---7-------2--------------4-----2------------------------------------------| 


Chorus 

e|---------------------------------------------------------------------------| 
B|---------------------------------------------------------------------------| 
G|---------------------------------------------------------------------------| 
D|---2-2--x--2-2-2--x--6-4-4--x--4-4-4--x--6---------------------------------| 
A|---2-2--x--2-2-2--x--6-4-4--x--4-4-4--x--6---------------------------------| 
E|---0-0--x--0-0-0--x--4-2-2--x--2-2-2--x--4---------------------------------| 

e|---------------------------------------------------------------------------| 
B|---------------------------------------------------------------------------| 
G|---------------------------------------------------------------------------| 
D|---2-2--x--2-2-2--x--6-4-4--x--4-4-4--x--6---------------------------------| 
A|---2-2--x--2-2-2--x--6-4-4--x--4-4-4--x--6---------------------------------| 
E|---0-0--x--0-0-0--x--4-2-2--x--2-2-2--x--4---------------------------------| 

e|---------------------------------------------------------------------------| 
B|---------------------------------------------------------------------------| 
G|---------------------------------------------------------------------------| 
D|---2-2-2-2-2-2-2-2--4-4-4-4-4-4-4-4-----2----4-----9----------------------| 
A|---2-2-2-2-2-2-2-2--4-4-4-4-4-4-4-4-----2----4-----9 (at end of song)----| 
E|---0-0-0-0-0-0-0-0--2-2-2-2-2-2-2-2-----0----2-----7---------------------| 

Repeat Verse 

Repeat Chorus 




************************************ 

| /   slide up 
| \   slide down 
| h   hammer-on 
| p   pull-off 
| ~   vibrato 
| +   harmonic 
| x   Mute note 
| b   Bend 
| pb  Pre-bend 
| br  Bend release 
| pbr Pre-bend release 
| brb Bend release bend 

************************************ 
share this page

See Also: