E-Chords
Yelawolf

Make Me A Believer (feat. Shooter Jennings)(Tabs)

Yelawolf

Watch the video lesson
Key: G
Bpm:145 
Tuning:Standard 
Intro 

Guitar 1 
2x 
     
G - C  
Guitar 2 
-12-12-10-10-7-7-----------------7-7-10-10-12-12-10-10-7-7------ 
-----------------10-10-8-8-10-10-------------------------------- 
---------------------------------------------------------------- 
---------------------------------------------------------------- 
---------------------------------------------------------------- 
---------------------------------------------------------------- 
-----------------7-7-10-10-------------------------------------- 
-10-10-8-8-10-10------------------------------------------------ 
---------------------------------------------------------------- 
---------------------------------------------------------------- 
---------------------------------------------------------------- 
---------------------------------------------------------------- 
-19-19-17-17-15-15-------------------15-15-17-17-19-19-17-17---- 
-------------------17-17-15-15-17-17---------------------------- 
---------------------------------------------------------------- 
---------------------------------------------------------------- 
---------------------------------------------------------------- 
---------------------------------------------------------------- 
-15-15--------------------15-15-17-17--------------------------- 
--------17-17-15-15-17-17--------------------------------------- 
---------------------------------------------------------------- 
---------------------------------------------------------------- 
---------------------------------------------------------------- 
---------------------------------------------------------------- 
Verse 
G - C - G - C - D - C  
Chorus 
2x 
    
G - C 

roll up this ad to continue

share this page

See Also: