E-Chords
Yelawolf

Empty Bottles(Tabs)

Yelawolf

Intro 
e|--------------------------------------| 
B|-5----5----7----7----5----5----5----4-| 
G|------------------------5-------------| 
D|-2--2------4--4------5----------------| 
A|-------------------------------3--2---| 
E|--------------------------------------| x 2 

Chorus 
e|--------------------------------------| 
B|-5----5----7----7----5----5----5----4-| 
G|------------------------5-------------| 
D|-2--2------4--4------5----------------| 
A|-------------------------------3--2---| 
E|--------------------------------------| x3 

e|---------------------------------------------| 
B|-5----5----7----7----5----5----8--6--5--3--5-| 
G|----5---------7------------------------------| 
D|-5---------7-------------------5--3--2--0--2-| 
A|---------------------3--3--------------------| 
E|---------------------------------------------| 

Verse 
e|--------------------------------------| 
B|-5----5----7----7----5----5----5----4-| 
G|------------------------5-------------| 
D|-2--2------4--4------5----------------| 
A|-------------------------------3--2---| 
E|--------------------------------------| x 4 
  
Chorus 
e|--------------------------------------| 
B|-5----5----7----7----5----5----5----4-| 
G|------------------------5-------------| 
D|-2--2------4--4------5----------------| 
A|-------------------------------3--2---| 
E|--------------------------------------| x3 

e|---------------------------------------------| 
B|-5----5----7----7----5----5----8--6--5--3--5-| 
G|----5---------7------------------------------| 
D|-5---------7-------------------5--3--2--0--2-| 
A|---------------------3--3--------------------| 
E|---------------------------------------------| 

Verse 
e|--------------------------------------| 
B|-5----5----7----7----5----5----5----4-| 
G|------------------------5-------------| 
D|-2--2------4--4------5----------------| 
A|-------------------------------3--2---| 
E|--------------------------------------| x 4 

Chorus 
e|--------------------------------------| 
B|-5----5----7----7----5----5----5----4-| 
G|------------------------5-------------| 
D|-2--2------4--4------5----------------| 
A|-------------------------------3--2---| 
E|--------------------------------------| x3 

e|---------------------------------------------| 
B|-5----5----7----7----5----5----8--6--5--3--5-| 
G|----5---------7------------------------------| 
D|-5---------7-------------------5--3--2--0--2-| 
A|---------------------3--3--------------------| 
E|---------------------------------------------| 

Verse 
e|--------------------------------------| 
B|-5----5----7----7----5----5----5----4-| 
G|------------------------5-------------| 
D|-2--2------4--4------5----------------| 
A|-------------------------------3--2---| 
E|--------------------------------------| x 4 

Interlude 
'Hey Wolf...Wolf. Come on man, time to go' 

Bridge 
e|----------------------------|-------------------------| 
B|-5----5----5----7----7----7-|-5---5---5----5---4----4-| 
G|----------------------------|---5---------------------| 
D|-2--2----2------4--4----4---|-5-----5-----------------| 
A|----------------------------|--------------3--2---2---| 
E|----------------------------|-------------------------| 

Chorus 
e|--------------------------------------| 
B|-5----5----7----7----5----5----5----4-| 
G|------------------------5-------------| 
D|-2--2------4--4------5----------------| 
A|-------------------------------3--2---| 
E|--------------------------------------| x3 

e|---------------------------------------------| 
B|-5----5----7----7----5----5----8--6--5--3--5-| 
G|----5---------7------------------------------| 
D|-5---------7-------------------5--3--2--0--2-| 
A|---------------------3--3--------------------| 
E|---------------------------------------------| 

e|--------------------------------------| 
B|-5----5----7----7----5----5----5----4-| 
G|------------------------5-------------| 
D|-2--2------4--4------5----------------| 
A|-------------------------------3--2---| 
E|--------------------------------------| x3 

e|---------------------------------------------| 
B|-5----5----7----7----5----5----8--6--5--3--5-| 
G|----5---------7------------------------------| 
D|-5---------7-------------------5--3--2--0--2-| 
A|---------------------3--3--------------------| 
E|---------------------------------------------| 

roll up this ad to continue

share this page

See Also: