E-Chords
Yardbirds

Shes So Respectable(Tabs)

Yardbirds

roll up this ad to continue

Key: C
Tuning: Standard 

Found this on an old record with different artists on it. It had a live recording of  
She's so Respectable credited to Eric Clapton. 
Same as the Five Live Yardbirds version. 
    C             Am 
e|--8--8--8--8-----5-5-5-5---------------------------------------------------| 
B|--8--8--8--8-----5-5-5-5---------------------------------------------------| 
G|--9--9--9--9-----5-5-5-5---------------------------------------------------| 
D|--10-10-10-10----7-7-7-7---------------------------------------------------| 
A|--10-10-10-10----7-7-7-7---------------------------------------------------| 
E|--8--8--8--8-----5-5-5-5---------------------------------------------------| 

Little break at 
'She's the only girl for me' 

    F        F# G 
e|--1-1-1-1--2-3-------------------------------------------------------------| 
B|--1-1-1-1--2-3-------------------------------------------------------------| 
G|--2-2-2-2--3-4-------------------------------------------------------------| 
D|--3-3-3-3--4-5-------------------------------------------------------------| 
A|--3-3-3-3--4-5-------------------------------------------------------------| 
E|--1-1-1-1--2-3-------------------------------------------------------------| 



************************************ 

| /   slide up 
| \   slide down 
| H   hammer-on 
| p   pull-off 
| ~   vibrato 
| +   harmonic 
| x   Mute note 
| B   Bend 
| pb  Pre-bend 
| br  Bend release 
| pbr Pre-bend release 
| brb Bend release bend 

************************************ 
share this page

See Also: