E-Chords
Yardbirds

I Ain't Done Wrong(Tabs)

Yardbirds

roll up this ad to continue

Intro: 

e|-12-12--10-10--------------12-12--10-10--7-5--0--| 
B|-12-13--10-10--------------12-12--10-10--7-5--0--| 
G|-13-13--11-11--------------13-13--11-11--8-6--1--| 
D|-14-14--12-12--------------14-14--12-12--9-7--2--| 
A|---------------7-7--2-2--------------------------| 
E|---------------5-5--0-0--------------------------| 

Verse:  

Gtr 1: 

e|-----------------------------------------------------------| 
B|-----------------------------------------------------------| 
G|-----------------------------------------------------------| 
D|-2-2--2-2--2-2--2-2------------2-2--2-2--------------------| 
A|-2-2--2-2--2-2--2-2--7-7--7-7--2-2--2-2--9-9--7-7--2-2--2-2| 
E|-0-0--0-0--0-0--0-0--5-5--5-5--0-0--0-0--7-7--5-5--0-0--0-0| 

Gtr 2: 

e|--------------------------------------------------------------12--------------| 
B|--------------------------12-15-15/17--17p15p12-17p15-15~--------15-12--------| 
G|------------------------------------------------------15~--14b---------14brb--| 
D|----------------------------------------------------------------------------14| 
A|------------------------------------------------------------------------------| 
E|---------------------3/5------------------------------------------------------| 

Gtr 2 on 2nd Verse: 

e|--------12-10-12--12-10---------------12-12-15b-15b-15b-12~--------12~-----10\-----12-----| 
B|9\8/9-------------------12-10-12-10~-------------------------12-12------10------/12----12~| 
G|---------------------------------------------------------------------------------------13~| 
D|------------------------------------------------------------------------------------------| 
A|------------------------------------------------------------------------------------------| 
E|------------------------------------------------------------------------------------------| 

Gtr 2 on 3rd Verse: 

e|--------------------------------------| 
B|-7/10\7----9\8/9--9\8/9--9\8/9--9\8/9-| 
G|-7/10\7----9\8/9--9\8/9--9\8/9--9\8/9-| 
D|--------------------------------------| 
A|--------------------------------------| 
E|--------------------------------------| 

Gtr 1 on bridge 

e|--------------------------------------------------------------------------------| 
B|--------------------------------------------------------------------------------| 
G|--------------------------------------------------------------------------------| 
D|--------------------------------------------------------------------------------| 
A|-14141417171719191917-14-14--14141417171719191917-14-14--77710101012121210-7-7--| 
E|-12121215151517171715-12-12--12121215151517171715-12-12--5558-8-8-1010108--5-5--| 


e|------------------------------------------------------------------------------| 
B|------------------------------------------------------------------------------| 
G|------------------------------------------------------------------------------| 
D|------------------------------------------------------------------------------| 
A|14141417171719191917-14-14--77710101012121210-7-7-----------------------------| 
E|12121215151517171715-12-12--5558-8-8-1010108--5-5-----------------------------| 


e|-----------------------------------------------------------------------------------| 
B|-----------------------------------------------------------------------------------| 
G|-----------------------------------------------------------------------------------| 
D|-----------------------------------------------------------------------------------| 
A|12121215151517171715-12-12---14141412121214141412-14-14--14141412121214141412-14-14| 
E|12121215151517171715-12-12---12121210101012121210-12-12--12121210101012121210-12-12| 

e|---------------------------------------------------------------------------------------| 
B|---------------------------------------------------------------------------------------| 
G|---------------------------------------------------------------------------------------| 
D|---------------------------------------------------------------------------------------| 
A|-7775557775-7-7--14141412121214141412-14-14--7775557775-7-7--14141412121214141412-14-14| 
E|-5553335553-5-5--12121210101012121210-12-12--5553335553-5-5--12121210101012121210-12-12| 

e|-------------------------------------------------------------------| 
B|-------------------------------------------------------------------| 
G|-------------------------------------------------------------------| 
D|-------------------------------------------------------------------| 
A|-------5--------5--------5--------5--------5--------5--------5-----| 
E|0-5--0---0-5--0---0-5--0---0-5--0---0-5--0---0-5--0---0-5--0---0-5-| 


e|---------------------------------------------------------| 
B|---------------------------------------------------------| 
G|---------------------------------------------------------| 
D|---------------------------------------------------------| 
A|--7--5--7---7--5--7---7-5-7-5-7-5-7----------------------| 
E|---------------------------------------------------------| 


Gtr2 on Bridge: 

e|---12-------------12----------------------------------------------| 
B|------15p12----------15p12-15b------------------------------------| 
G|14b------------14b--------------2b~----0h2p0-2b~--2brb2b~-2brb2b~-| 
D|--------------------------------------2---------------------------| 
A|------------------------------------------------------------------| 
E|------------------------------------------------------------------| 


e|12-10-12--12-10-12--12-10-12-10-12-10-12-| 
B|12-10-12--12-10-12--12-10-12-10-12-10-12-| 
G|13-11-13--13-11-13--13-11-13-11-13-11-13-| 
D|-----------------------------------------| 
A|-----------------------------------------| 
E|-----------------------------------------| 



Guitar 1 on Bridge: 

e|---------------------------------------------------------------------------------| 
B|---------------------------------------------------------------------------------| 
G|----------------------------------------------------------------------------xxxxx| 
D|----------------------------------------------------------------------xxxxxxxxxxx| 
A|-1414141212121414141212121414141212121414141212121414141414141414xxxxxxxxxxx-----| 
E|-1212121010101212121010101212121010101212121010101212121212121212xxxxx-----------| 

Outro: 

e|--------------------| 
B|--------------------| 
G|--------------------| 
D|--------------------| 
A|-14-14--12-12--7-7-2| 
E|-12-12--10-10--5-5-0| 


************************************ 

| /   slide up 
| \   slide down 
| h   hammer-on 
| p   pull-off 
| ~   vibrato 
| +   harmonic 
| x   Mute note 
| b   Bend 
| pb  Pre-bend 
| br  Bend release 
| pbr Pre-bend release 
| brb Bend release bend 

************************************ 
share this page

See Also: