E-Chords
Yardbirds

Here Tis(Tabs)

Yardbirds

roll up this ad to continue

Key: G
Intro: 

e|--------------| 
B|--5-----------| 
G|----7-4--5-4--| 
D|-------------5| 
A|--------------| 
E|--------------|x2 


Song is on G 


Solo: 

e|----15---15---15---15---15-------15----15----15----15--------------------------------| 
B|-18b--18b--18b--18b--18b------15----15----15----15------------------5/7\5-----5------| 
G|------------------------------17b---17b---17b---17b---17pbr15-------------8-5---8-5-8| 
D|-------------------------------------------------------------17-17-------------------| 
A|-------------------------------------------------------------------------------------| 
E|-------------------------------------------------------------------------------------| 

e|-----------------------10---10---10---10---10---10---10---10---10----------------| 
B|--------------------13b--13b--13b--13b--13b--13b--13b--13b--13b--13b-13brb10-----| 
G|3-3-3-3-3-3-3-3-3-0----------------------------------------------------------13--| 
D|---------------------------------------------------------------------------------| 
A|---------------------------------------------------------------------------------| 
E|---------------------------------------------------------------------------------| 


************************************ 

| /   slide up 
| \   slide down 
| h   hammer-on 
| p   pull-off 
| ~   vibrato 
| +   harmonic 
| x   Mute note 
| b   Bend 
| pb  Pre-bend 
| br  Bend release 
| pbr Pre-bend release 
| brb Bend release bend 

************************************ 
share this page

See Also: