E-Chords
Xangai

Sete Cantigas Para Voar(Tabs)

Xangai

roll up this ad to continue

ista 1 
                                                                         
E||-----------------2----|--5----3----2---------|------------0---------| 
B||------------2---------|----------------------|-------2---------3----| 
G||-------2--------------|----------------------|--0--------------4----| 
D||----------------------|----------------------|-----------------4----| 
A||--0-------------------|-----------------1----|-----------------2----| 
E||----------------------|----------------------|----------------------| 

                                                                      
--2-------------------|------------0---------|----------------------| 
-------3--------------|-------0---------3----|-----------------3----| 
----------------------|--0-------------------|------------0---------| 
-----------------0----|----------------------|-------2--------------| 
----------------------|----------------------|--0-------------------| 
------------3---------|----------------------|----------------------| 

                                                                      
----------------------|--2----5----3----2----|--0-------------------| 
--2--------------2----|----------------------|--2----3----0----3----| 
--0---------2---------|----------------------|--0----4----0---------| 
--2-------------------|----------------------|-------4----0---------| 
-------0--------------|----------------------|--1----2--------------| 
----------------------|----------------------|------------3---------| 

                                                                        
--7----7----5----8----|--7----5----8----7----|--5----8----7----3-----|| 
-------5----5----7----|------------7---------|-------7---------------|| 
-------6----6----5----|------------5---------|-------5--------------*|| 
-----------------0----|------------0---------|-------0--------------*|| 
-------0--------------|----------------------|-----------------------|| 
----------------------|----------------------|-----------------------|| 

                                                                                
-----------------0----|--6----5----3----6----|--5----3----6----5----|--3-----|| 
------------0---------|--3-------------------|----------------------|--------|| 
-------0--------------|--3-------------------|----------------------|-------*|| 
----------------------|--3-------------------|----------------------|-------*|| 
----------------------|--3-------------------|----------------------|--------|| 
--3-------------------|--3-------------------|----------------------|--------|| 

                                                                        
--2----||--------7---------5----|--5---------2---------|--3----2-----|| 
--3----||---5---------5---------|------------3---------|--0----3-----|| 
--2----||*--7---------6---------|------------2---------|--0----2----*|| 
--0----||*--6---------7---------|-------0--------------|-------0----*|| 
-------||-----------------------|----------------------|-------------|| 
-------||-----------------------|-----------------3----|-------------|| 


                                                                              
-------7---------7----|-------7--------------|-------2---------3----|--2----|| 
--7---------7---------|--7---------7---------|-------3---------0----|--3----|| 
----------------------|-----------------7----|-------2---------0----|--2----|| 
----------------------|----------------------|--0-------------------|--0----|| 
----------------------|----------------------|----------------------|-------|| 
----------------------|----------------------|------------3---------|-------|| 
share this page

See Also: