E-Chords
Wipers

What Is(Tabs)

Wipers


Intro : 

e|--------------------------------------| 
b|--------------------------------------| 
g|--------------------------------------| 
d|5-5-5-5-5-5--2-2-2-2-2----------------|reapeatX2 
a|5-5-5-5-5-5--2-2-2-2-2----------------| 
e|3-3-3-3-3-3--0-0-0-0-0----------------| 

e|--------------------------------------| 
b|--------------------------------------| 
g|5-5-5-5-5-5--2-2-2-2-2----------------| 
d|5-5-5-5-5-5--2-2-2-2-2----------------| 
a|3-3-3-3-3-3--0-0-0-0-0----------------| 
e|--------------------------------------| 

e|2-2-2-2-2-2---------------------------| 
b|3-3-3-3-3-3---------------------------| 
g|2-2-2-2-2-2--4-4-4-4-4-4--------------| 
d|-------------4-4-4-4-4-4--------------| 
a|-------------2-2-2-2-2-2--------------| 
e|--------------------------------------| 

e|3-3-3-3-3-3/-12-12--12-12-12-12-12----| 
b|3-3-3-3-3-3/------12------------------| 
g|3-3-3-3-3-3/--------------------------| 
d|--------------------------------------| 
a|--------------------------------------| 
e|--------------------------------------| 

e|5-5--5-5-5-5/-12---14-14-14-14-14-----| 
b|3-3--5-5-5-5/----12-------------------| 
g|3-3--3-3-3-3/-------------------------| 
d|--------------------------------------| 
a|--------------------------------------| 
e|--------------------------------------| 

e|--------------------------------------| 
b|--------------------------------------| 
g|5-5-5-5-5-5--2-2-2-2-2----------------| 
d|5-5-5-5-5-5--2-2-2-2-2----------------| 
a|3-3-3-3-3-3--0-0-0-0-0----------------| 
e|--------------------------------------| 

e|2-2-2-2-2-2---------------------------| 
b|3-3-3-3-3-3---------------------------| 
g|2-2-2-2-2-2--4-4-4-4-4-4--------------| 
d|-------------4-4-4-4-4-4--------------| 
a|-------------2-2-2-2-2-2--------------| 
e|--------------------------------------| 

Verses : 

e|---------------------------------------------------------------------------------------| 
b|---------------------------------------------------------------------------------------| 
g|5-5-5-5-5-5-5-5-5-5-5-5--4-4-4-4-4-4-4-4-4-4-4-4-4--5-5-5-5-5-5-5-5-5-5-5-5-5-5-5-5----| 
d|5-5-5-5-5-5-5-5-5-5-5-5--4-4-4-4-4-4-4-4-4-4-4-4-4--5-5-5-5-5-5-5-5-5-5-5-5-5-5-5-5----| 
a|3-3-3-3-3-3-3-3-3-3-3-3--2-2-2-2-2-2-2-2-2-2-2-2-2--3-3-3-3-3-3-3-3-3-3-3-3-3-3-3-5----| 
e|---------------------------------------------------------------------------------------| 

Chorus: 

e|--------------------------------------| 
b|--------------------------------------| 
g|--------------------------------------| 
d|5-5-5-5-5-5--2-2-2-2-2----------------|reapeatX2 
a|5-5-5-5-5-5--2-2-2-2-2----------------| 
e|3-3-3-3-3-3--0-0-0-0-0----------------| 

e|--------------------------------------| 
b|--------------------------------------| 
g|5-5-5-5-5-5--2-2-2-2-2----------------| 
d|5-5-5-5-5-5--2-2-2-2-2----------------| 
a|3-3-3-3-3-3--0-0-0-0-0----------------| 
e|--------------------------------------| 

e|2-2-2-2-2-2---------------------------| 
b|3-3-3-3-3-3---------------------------| 
g|2-2-2-2-2-2--4-4-4-4-4-4--------------| 
d|-------------4-4-4-4-4-4--------------| 
a|-------------2-2-2-2-2-2--------------| 
e|--------------------------------------| 


Verses : 

e|---------------------------------------------------------------------------------------| 
b|---------------------------------------------------------------------------------------| 
g|5-5-5-5-5-5-5-5-5-5-5-5--4-4-4-4-4-4-4-4-4-4-4-4-4--5-5-5-5-5-5-5-5-5-5-5-5-5-5-5-5----| 
d|5-5-5-5-5-5-5-5-5-5-5-5--4-4-4-4-4-4-4-4-4-4-4-4-4--5-5-5-5-5-5-5-5-5-5-5-5-5-5-5-5----| 
a|3-3-3-3-3-3-3-3-3-3-3-3--2-2-2-2-2-2-2-2-2-2-2-2-2--3-3-3-3-3-3-3-3-3-3-3-3-3-3-3-5----| 
e|---------------------------------------------------------------------------------------| 

Chorus: 

e|--------------------------------------| 
b|--------------------------------------| 
g|--------------------------------------| 
d|5-5-5-5-5-5--2-2-2-2-2----------------|reapeatX2 
a|5-5-5-5-5-5--2-2-2-2-2----------------| 
e|3-3-3-3-3-3--0-0-0-0-0----------------| 

e|--------------------------------------| 
b|--------------------------------------| 
g|5-5-5-5-5-5--2-2-2-2-2----------------| 
d|5-5-5-5-5-5--2-2-2-2-2----------------| 
a|3-3-3-3-3-3--0-0-0-0-0----------------| 
e|--------------------------------------| 

e|2-2-2-2-2-2---------------------------| 
b|3-3-3-3-3-3---------------------------| 
g|2-2-2-2-2-2--4-4-4-4-4-4--------------| 
d|-------------4-4-4-4-4-4--------------| 
a|-------------2-2-2-2-2-2--------------| 
e|--------------------------------------| 

Verses : 

e|---------------------------------------------------------------------------------------| 
b|---------------------------------------------------------------------------------------| 
g|5-5-5-5-5-5-5-5-5-5-5-5--4-4-4-4-4-4-4-4-4-4-4-4-4--5-5-5-5-5-5-5-5-5-5-5-5-5-5-5-5----| 
d|5-5-5-5-5-5-5-5-5-5-5-5--4-4-4-4-4-4-4-4-4-4-4-4-4--5-5-5-5-5-5-5-5-5-5-5-5-5-5-5-5----| 
a|3-3-3-3-3-3-3-3-3-3-3-3--2-2-2-2-2-2-2-2-2-2-2-2-2--3-3-3-3-3-3-3-3-3-3-3-3-3-3-3-5----| 
e|---------------------------------------------------------------------------------------| 

Chorus: 

e|--------------------------------------| 
b|--------------------------------------| 
g|--------------------------------------| 
d|5-5-5-5-5-5--2-2-2-2-2----------------|reapeatX2 
a|5-5-5-5-5-5--2-2-2-2-2----------------| 
e|3-3-3-3-3-3--0-0-0-0-0----------------| 

e|--------------------------------------| 
b|--------------------------------------| 
g|5-5-5-5-5-5--2-2-2-2-2----------------| 
d|5-5-5-5-5-5--2-2-2-2-2----------------| 
a|3-3-3-3-3-3--0-0-0-0-0----------------| 
e|--------------------------------------| 

e|2-2-2-2-2-2---------------------------| 
b|3-3-3-3-3-3---------------------------| 
g|2-2-2-2-2-2--4-4-4-4-4-4--------------| 
d|-------------4-4-4-4-4-4--------------| 
a|-------------2-2-2-2-2-2--------------| 
e|--------------------------------------| 

Outro: 

e|-----------8------8------------8-----8---------7----7--7-7-7--7-7-7-| 
b|-----------8------8------------8-----8---------7----7--7-7-7--7-7-7-| 
g|-----------9------9------------9-----9---------8----8--8-8-8--8-8-8-| 
d|*10*10*10-10-*10-10-*10*10*10-10-*10-10-*9*9*9-9-*9-9--9-9-9--9-9-9-| 
a|--------------------------------------------------------------------| 
e|--------------------------------------------------------------------| 

e|------------8------8----8-10-10-------| 
b|------------8------8---8-8------------| 
g|------------9------9--9---------------| 
d|*10*10*10*-10-*10-10------------------| 
a|--------------------------------------| 
e|--------------------------------------| 

e|3-3-3-3-3-3/-12-12--12-12-12-12-12----| 
b|3-3-3-3-3-3/------12------------------| 
g|3-3-3-3-3-3/--------------------------| 
d|--------------------------------------| 
a|--------------------------------------| 
e|--------------------------------------| 

e|5-5--5-5-5-5/-12---14-14-14-14-14-----| 
b|3-3--5-5-5-5/----12-------------------| 
g|3-3--3-3-3-3/-------------------------| 
d|--------------------------------------| 
a|--------------------------------------| 
e|--------------------------------------| 

e|--------------------------------------| 
b|--------------------------------------| 
g|5-5-5-5-5-5--2-2-2-2-2----------------| 
d|5-5-5-5-5-5--2-2-2-2-2----------------| 
a|3-3-3-3-3-3--0-0-0-0-0----------------| 
e|--------------------------------------| 

e|2-2-2-2-2-2---------------------------| 
b|3-3-3-3-3-3---------------------------| 
g|2-2-2-2-2-2--4-4-4-4-4-4--------------| 
d|-------------4-4-4-4-4-4--------------| 
a|-------------2-2-2-2-2-2--------------| 
e|--------------------------------------| 

Verses : 

e|---------------------------------------------------------------------------------------| 
b|---------------------------------------------------------------------------------------| 
g|5-5-5-5-5-5-5-5-5-5-5-5--4-4-4-4-4-4-4-4-4-4-4-4-4--5-5-5-5-5-5-5-5-5-5-5-5-5-5-5-5----| 
d|5-5-5-5-5-5-5-5-5-5-5-5--4-4-4-4-4-4-4-4-4-4-4-4-4--5-5-5-5-5-5-5-5-5-5-5-5-5-5-5-5----| 
a|3-3-3-3-3-3-3-3-3-3-3-3--2-2-2-2-2-2-2-2-2-2-2-2-2--3-3-3-3-3-3-3-3-3-3-3-3-3-3-3-5----| 
e|---------------------------------------------------------------------------------------| 

Chorus: 

e|--------------------------------------| 
b|--------------------------------------| 
g|--------------------------------------| 
d|5-5-5-5-5-5--2-2-2-2-2----------------|reapeatX2 
a|5-5-5-5-5-5--2-2-2-2-2----------------| 
e|3-3-3-3-3-3--0-0-0-0-0----------------| 

e|--------------------------------------| 
b|--------------------------------------| 
g|5-5-5-5-5-5--2-2-2-2-2----------------| 
d|5-5-5-5-5-5--2-2-2-2-2----------------| 
a|3-3-3-3-3-3--0-0-0-0-0----------------| 
e|--------------------------------------| 

e|2-2-2-2-2-2---------------------------| 
b|3-3-3-3-3-3---------------------------| 
g|2-2-2-2-2-2--4-4-4-4-4-4--------------| 
d|-------------4-4-4-4-4-4--------------| 
a|-------------2-2-2-2-2-2--------------| 
e|--------------------------------------| 

End: 

e|--------------------------------------| 
b|--------------------------------------| 
g|--------------------------------------| 
d|5-5-5-5-5-5--2-2-2-2-2----------------|reapeatX2 
a|5-5-5-5-5-5--2-2-2-2-2----------------| 
e|3-3-3-3-3-3--0-0-0-0-0----------------| 

e|--------------------------------------| 
b|--------------------------------------| 
g|5-5-5-5-5-5--2-2-2-2-2----------------| 
d|5-5-5-5-5-5--2-2-2-2-2----------------| 
a|3-3-3-3-3-3--0-0-0-0-0----------------| 
e|--------------------------------------| 

e|2-2-2-2-2-2---------------------------| 
b|3-3-3-3-3-3---------------------------| 
g|2-2-2-2-2-2--4-4-4-4-4-4--------------| 
d|-------------4-4-4-4-4-4--------------| 
a|-------------2-2-2-2-2-2--------------| 

thanks you everyone and keep the good vibs! 

https://www.youtube.com/watch?v=4YQvbB-6YTw 

roll up this ad to continue

share this page

See Also: