E-Chords
Weeping Willows

Stay With Me(Tabs)

Weeping Willows

roll up this ad to continue

Key: C
Intro:  
  C                           F 
|---------2-3-|-10-9-8-------|------------------| 
|-------1-----|--------------|-12-11-10---------| 
|-----0-------|--------0-----|----------10------| 
|---2---------|----------2---|-------------10---| 
|-3-----------|------------3-|--8-------------8-| 
|-------------|--------------|------------------| 
                                

                    C 
|--8---------------|---------2-3-| 
|------12----10----|-------1-----| 
|---------10-------|-----0-------| 
|-10------------10-|---2---------| 
|----8-------------|-3-----------| 
|------------------|-------------| 


                F 
|-10-9-8-------|--------------------| 
|--------------|-12--11-10----------| 
|--------0-----|-----------10-------| 
|----------2---|---------------10---| 
|------------3-|--8---------------8-| 
|--------------|--------------------| 
                   


                    C  
|--8---------------|-------------|-----------3--| 
|------12----10----|-------1-----|-------1------| 
|---------10-------|-----0---0---|-----0---0----| 
|-10------------10-|---2-------2-|---2-------2--| 
|----8-------------|-3-----------|-3------------| 
|------------------|-------------|--------------| 


 F                                    C 
|------------------|-----------------|--3-2-3-------| 
|-^10-9-10---------|--------10-------|-^1-----1-----| 
|-^10------10------|-----------10----|-^0-------0---| 
|-^10---------10---|-----10-------10-|------------2-| 
|-^-8------------8-|---8-------------|-^3-----------| 
|------------------|-8---------------|--------------| 
                                         


                F 
|-10-9-8-------|------------------|--8---------------| 
|--------------|-12-11-10---------|------12----10----| 
|--------0-----|----------10------|---------10-------| 
|----------2---|-------------10---|-10------------10-| 
|------------3-|--8-------------8-|----8-------------| 
|--------------|------------------|------------------| 
                   


Verse:   
 C                           Fmaj7                       C  
|-------------|-------------|-------0-----|-------0-----|-------------| 
|-------1-----|-------1-----|-----1---1---|-----1---1---|-------1-----| 
|-----0---0---|-----0---0---|---2-------2-|---2-------2-|-----0---0---| 
|---2-------2-|---2-------0-|-3-----------|-3-----------|---2-------2-| 
|-3-----------|-3-----------|-------------|-------------|-3-----------| 
|-------------|-------------|-------------|-------------|-------------| 
Now I've..  the bottom line    My moment of truth         I walked 'round the  
I knew you where there for me but now I've been bad       I ate the for- 

               Fmaj7                       Dm            G 
|-------------|-------0-----|-------0-----|-------1-----|--------------| 
|-------1-----|-----1---1---|-----1---1---|-----3---3---|-------0------| 
|-----0---0---|---2-------2-|---2-------2-|---2-------2-|-----0---0----| 
|---2-------0-|-3-----------|-3-----------|-0-----------|---0-------0--| 
|-3-----------|-------------|-------------|-------------|--------------| 
|-------------|-------------|-------------|-------------|-3------------| 
burning flames when I should.. through    I'm down on my bended knees 
bidden fruit   and for.. what I had       I wanted to     have it all 
 C             Am            Dm            Em/B          F 
|-------------|-------------|-------1-----|-------------|--------------| 
|-------1-----|-------1-----|-----3---3---|-------0-----|-------1------| 
|-----0---0---|-----2---2---|---2-------2-|-----0---0---|-----2---2----| 
|---2-------2-|---2-------2-|-0-----------|---2-------2-|---3-------3--| 
|-3-----------|-0-----------|-------------|-2-----------|--------------| 
|-------------|-------------|-------------|-------------|-1------------| 
I can't cry no more         I can't find an easy.. I need help to get up from the  
     Now I must plead       I need you to catch..      Oh please, have mercy on  
 G             Cm                          Em/B 
|-------------|-------------|-------------|-------------|--------------| 
|-------0-----|-------4-----|-------4-----|-------0-----|-------0------| 
|-----0---0---|-----5---5---|-----5---5---|-----0---0---|-----0---0----| 
|---0-------0-|---5-------5-|---5-------5-|---2-------2-|---2-------2--| 
|-------------|-3-----------|-3-----------|-2-----------|-2------------| 
|-3-----------|-------------|-------------|-------------|--------------| 
  floor        stay    with   me       I   need   second chance  
  me 
 Am                          G                           Cm 
|-------------|-------------|-------------|-------------|--------------| 
|-------1-----|-------1-----|-------0-----|-------0-----|-------4------| 
|-----2---2---|-----2---2---|-----0-------|-----0---0---|-----5---5----| 
|---2-------2-|---2-------2-|---0---------|---0-------0-|---5-------5--| 
|-0-----------|-0-----------|-------------|-------------|-3------------| 
|-------------|-------------|-3-------3-0-|-3-----------|--------------| 
Only love can lift the heavy burden from my heart        stay      with 

               G#                          Fm/C          G 
|-------------|-------------|-------------|-------------|--------------| 
|-------4-----|-------4-----|-------4-----|-------1-----|-------0------| 
|-----5---5---|-----5---5---|-----5---5---|-----1---1---|-----0---0----| 
|---5-------5-|---6-------6-|---6-------6-|---3-------3-|---0-------0--| 
|-3-----------|-------------|-------------|-3-----------|--------------| 
|-------------|-4-----------|-4-----------|-------------|-3------------| 
  me     when   everything is dark         That's when... watch the twinkling  

1st time play this:                                        Back to vers 
 C                            F 
|---------2-3-|-10-9-8-------|------------------|--8----------------| 
|-------1-----|--------------|-12-11-10---------|------12----10-----| 
|-----0-------|--------0-----|----------10------|---------10--------| 
|---2---------|----------2---|-------------10---|-10------------10--| 
|-3-----------|------------3-|--8-------------8-|----8--------------| 
|-------------|--------------|------------------|-------------------| 
  stars      
                          
second time play this: 

 C 
|-------------|-------------| 
|-------1-----|-------1-----| 
|-----0---0---|-----0---0---| 
|---2-------2-|---2-------0-| 
|-3-----------|-3-----------| 
|-------------|-------------| 
 stars 


Solo: 

|Am|Am|Fm|Fm|Dm|Dm|G|G|Cm|Cm|Fm|Fm|G#|G#|G|G| 

Ref:  


 Cm                          Em/B  
|-------------|-------------|-------------|--------------| 
|-------4-----|-------4-----|-------0-----|-------0------| 
|-----5---5---|-----5---5---|-----0---0---|-----0---0----| 
|---5-------5-|---5-------5-|---2-------2-|---2-------2--| 
|-3-----------|-3-----------|-2-----------|-2------------| 
|-------------|-------------|-------------|--------------| 
 stay    with   me       I   need   second chance  

  Am                         G                           Cm 
|-------------|-------------|-------------|-------------|--------------| 
|-------1-----|-------1-----|-------0-----|-------0-----|-------4------| 
|-----2---2---|-----2---2---|-----0-------|-----0---0---|-----5---5----| 
|---2-------2-|---2-------2-|---0---------|---0-------0-|---5-------5--| 
|-0-----------|-0-----------|-------------|-------------|-3------------| 
|-------------|-------------|-3-------3-0-|-3-----------|--------------| 
Only love can lift the heavy burden from my heart        stay      with 

                                                          ritardando     
               G#                          Fm/C          G 
|-------------|-------------|-------------|-------------|--------------| 
|-------4-----|-------4-----|-------4-----|-------1-----|-------0------| 
|-----5---5---|-----5---5---|-----5---5---|-----1---1---|-----0---0----| 
|---5-------5-|---6-------6-|---6-------6-|---3-------3-|---0-------0--| 
|-3-----------|-------------|-------------|-3-----------|--------------| 
|-------------|-4-----------|-4-----------|-------------|-3------------| 
  me     when   everything is dark         That's when... watch the twinkling  

 C 
|-------------|-------------| 
|-------1-----|-------1-----| 
|-----0---0---|-----0---0---| 
|---2-------2-|---2-------0-| 
|-3-----------|-3-----------| 
|-------------|-------------| 
stars 

 Fm            G             C   pull off 
|-------------|-------------|-------| 
|-------1-----|-------0-----|-^1-0--| 
|-----1---1---|-----0---0---|-^0----| 
|---3-------3-|---0-------0-|-^2----| 
|-------------|-------------|-^3----| 
|-1-----------|-3-----------|-------| 
ooooh           ooooh 
share this page

See Also: