E-Chords
Weeping Willows

By The River(Tabs)

Weeping Willows

roll up this ad to continue

Key: E
  Q=90 
  Cb5                                 Bm 
 4/4 
  Gtr I 
  E E E E E E E E   E E E E E E E E   E E E E E E E E   E E E E E E E E 
|-----2---3---2---|-----2---3---2---|-----2---3---2---|-----2---3---2----| 
|---5---5---5---5-|---5---5---5---5-|---3---3---3---3-|---3---3---3---3--| 
|-5---------------|-5---------------|-4---------------|-4----------------| 
|-----------------|-----------------|-----------------|------------------| 
|-----------------|-----------------|-----------------|------------------| 
|-----------------|-----------------|-----------------|------------------| 


  Q=90 
  Cb5                                 Bm 
 4/4 
  Gtr I 
  E E E E E E E E   E E E E E E E E   E E E E E E E E   E E  E E E E E E 
|-----2---3---2---|-----2---3---2---|-----2---3---2---|------2---3---2----| 
|---5---5---5---5-|---5---5---5---5-|---3---3---3---3-|---3----3---3---3--| 
|-5---------------|-5---------------|-4---------------|-4-----------------| 
|-----------------|-----------------|-----------------|-------------------| 
|-----------------|-----------------|-----------------|-------------------| 
|-----------------|-----------------|-----------------|-------------------| 
| 
|                                                            Gtr II 
|                                                         H.         Q 
|-----------------|-----------------|-----------------|--------------4S===| 
|-----------------|-----------------|-----------------|-------------------| 
|-----------------|-----------------|-----------------|-------------------| 
|-----------------|-----------------|-----------------|-------------------| 


  Q=90 
  Cb5                                 Bm 
 4/4 
  Gtr I 
  E E E E E E E E   E E E E E E E E   E E E E E E E E     E  E E E E  E E E 
|-----2---3---2---|-----2---3---2---|-----2---3---2---|--------2---3----2---| 
|---5---5---5---5-|---5---5---5---5-|---3---3---3---3-|------3---3----3---3-| 
|-5---------------|-5---------------|-4---------------|---4-----------------| 
|-----------------|-----------------|-----------------|---------------------| 
|-----------------|-----------------|-----------------|---------------------| 
|-----------------|-----------------|-----------------|---------------------| 
| 
| W                                   W                   H        Q.   E 
|-5---------------|-----------------|-4---------------|-----------------4---| 
|-----------------|-----------------|-----------------|-<12>----------------| 
|-----------------|-----------------|-----------------|---------------------| 
|-----------------|-----------------|-----------------|---------------------| 


  Q=90 
  Cb5                                  Bm 
 4/4 
  Gtr I 
  E E E E E E E E   E  E E E E E E E   E E E E E E E E   E E  E E E E E E 
|-----2---3---2---|------2---3---2---|-----2---3---2---|------2---3---2-----| 
|---5---5---5---5-|----5---5---5---5-|---3---3---3---3-|---3----3---3---3---| 
|-5---------------|-5----------------|-4---------------|-4------------------| 
|-----------------|------------------|-----------------|--------------------| 
|-----------------|------------------|-----------------|--------------------| 
|-----------------|------------------|-----------------|--------------------| 
| 
| W                 H. E           E   W                   H.   E         E 
|-5---------------|----------------2-|-4---------------|------------------0-| 
|-----------------|------------------|-----------------|--------------------| 
|-----------------|------------------|-----------------|--------------------| 
|-----------------|------------------|-----------------|--------------------| 


  Am                                     A                 A 
                                                           < 
  E E E E E E E E     E  E E E E E E E   E E E E E E E E   E E E E E E E E 
|-----0---3---0---|--------0---3---0---|-----0-------0---|-0-0-0-0-0-0-0-0-| 
|---1---1---1---1-|------1---1---1---1-|---2---2---2---2-|-2-2-2-2-2-2-2-2-| 
|-2---------------|---2----------------|-2-------2-------|-2-2-2-2-2-2-2-2-| 
|-----------------|--------------------|-----------------|-2-2-2-2-2-2-2-2-| 
|-----------------|--------------------|-----------------|-0-0-0-0-0-0-0-0-| 
|-----------------|--------------------|-----------------|-----------------| 
| 
|                                                          < 
| W                   H      H           Q   Q   Q   Q     Q   Q   Q   Q 
|-2---------------|--------------------|-----------------|-----------------| 
|-----------------|--------------------|-----------------|-----------------| 
|-----------------|-<12>---------------|-0---0---0---0---|-0---0---0---0---| 
|-----------------|--------------------|-----------------|-----------------| 


    G                 Gmaj7             Am                 D 
    Gtr III 
    E E E E E E E E   E E E E E E E E   E  E E E E E E E   E  E E E E E E E 
||--3-3-3-3-3-3-3-3-|-2-2-2-2-2-2-2-2-|-0--0-0-0-0-0-0-0-|-2--2-2-2-2-2-2-2--|| 
||o-0-0-0-0-0-0-0-0-|-0-0-0-0-0-0-0-0-|-1--1-1-1-1-1-1-1-|-3--3-3-3-3-3-3-3-o|| 
||--0-0-0-0-0-0-0-0-|-0-0-0-0-0-0-0-0-|-2--2-2-2-2-2-2-2-|-2--2-2-2-2-2-2-2--|| 
||--0-0-0-0-0-0-0-0-|-0-0-0-0-0-0-0-0-|-2--2-2-2-2-2-2-2-|-0--0-0-0-0-0-0-0--|| 
||o-2-2-2-2-2-2-2-2-|-2-2-2-2-2-2-2-2-|-0--0-0-0-0-0-0-0-|------------------o|| 
||--3-3-3-3-3-3-3-3-|-3-3-3-3-3-3-3-3-|------------------|-------------------|| 
| 
|   H       H         H       H         Q.       E H       Q.     E H 
||------------------|-----------------|------------------|-------------------|| 
||o-----------------|-----------------|------------------|-0------0-0-------o|| 
||o-----------------|-----------------|-0--------0-0-----|------------------o|| 
||--3-------3-------|-3-------3-------|------------------|-------------------|| 


  C                 Em                Am                Am7 
  E E E E E E E E   E E E E E E E E   E E E E E E E E   E E E E E E E E 
|-0-0-0-0-0-0-0-0-|-0-0-0-0-0-0-0-0-|-0-0-0-0-0-0-0-0-|-0-0-0-0-0-0-0-0-| 
|-1-1-1-1-1-1-1-1-|-0-0-0-0-0-0-0-0-|-1-1-1-1-1-1-1-1-|-1-1-1-1-1-1-1-1-| 
|-0-0-0-0-0-0-0-0-|-0-0-0-0-0-0-0-0-|-2-2-2-2-2-2-2-2-|-0-0-0-0-0-0-0-0-| 
|-2-2-2-2-2-2-2-2-|-2-2-2-2-2-2-2-2-|-2-2-2-2-2-2-2-2-|-2-2-2-2-2-2-2-2-| 
|-3-3-3-3-3-3-3-3-|-2-2-2-2-2-2-2-2-|-0-0-0-0-0-0-0-0-|-0-0-0-0-0-0-0-0-| 
|-----------------|-0-0-0-0-0-0-0-0-|-----------------|-----------------| 
| 
| H       H         H       H         H       H         E E E E E E E E 
|-----------------|-----------------|-----------------|-----------------| 
|-----------------|-2-------2-------|-----------------|-----------------| 
|-3-------3-------|-----------------|-0-------0-------|-0-0-0-0-0-0-0-0-| 
|-----------------|-----------------|-----------------|-----------------| 


                               D.C. 
  G 
  E E E E E E E E   E  E E E E E E E     W       W 
|-3-3-3-3-3-3-3-3-|-3--3-3-3-3-3-3-3-|---------|--------|----| 
|-3-3-3-3-3-3-3-3-|-3--3-3-3-3-3-3-3-|---------|--------|----| 
|-0-0-0-0-0-0-0-0-|-0--0-0-0-0-0-0-0-|---------|--------|----| 
|-0-0-0-0-0-0-0-0-|-0--0-0-0-0-0-0-0-|---------|--------|----| 
|-2-2-2-2-2-2-2-2-|-2--2-2-2-2-2-2-2-|---------|--------|----| 
|-3-3-3-3-3-3-3-3-|-3--3-3-3-3-3-3-3-|---------|--------|----| 
| 
| H       H         Q.     E H         W         W 
|-----------------|------------------|---------|--------|----| 
|-----------------|------------------|---------|--------|----| 
|-----------------|------------------|-3-------|--------|----| 
|-3-------3-------|-3------3-3-------|---------|--------|----| 


  Gtr I 
  Q   Q   Q   Q     H.           E E 
|-----0---2---3---|-2----------------| 
|-3---------------|--------------5p3h| 
|-----------------|------------------| 
|-----------------|------------------| 
|-----------------|------------------| 
|-----------------|------------------| 
| 
| Gtr IV 
| E E E E E E E E   E  E E E E E E E 
|-----------------|------------------| 
|-----------------|------------------| 
|-----------------|------------------| 
|-3-3-3-3-3-3-3-3-|-3--3-3-3-3-3-3-3-| 


  Q.     E H         Q.     S S E   Q. 
|--------7-7-------|-0------7p5h7-------|---| 
|-5----------------|--------------------|---| 
|------------------|--------------------|---| 
|------------------|--------------------|---| 
|------------------|--------------------|---| 
|------------------|--------------------|---| 
| 
| E  E E E E E E E   E  E E E E E E E 
|------------------|--------------------|---| 
|------------------|--------------------|---| 
|------------------|--------------------|---| 
|-3--3-3-3-3-3-3-3-|-3--3-3-3-3-3-3-3---|---| 


  Q   Q   Q   Q     H.           E E 
|---------0---1---|-0----------------| 
|-1---3---1-------|-1------------3p1h| 
|-2-------2-------|-2----------------| 
|-3-3-3-3-3-3-3-3-|-3--3-3-3-3-3-3-3-| 
|-----------------|------------------| 
|-----------------|------------------| 
| E E E E E E E E   E  E E E E E E E 
| 
| E E E E E E E E   E  E E E E E E E 
|-----------------|------------------| 
|-----------------|------------------| 
|-----------------|------------------| 
|-1-1-1-1-1-1-1-1-|-1--1-1-1-1-1-1-1-| 


  Q.     E H         Q.     S S Q.    S S 
|--------5-5-------|--------5-3-5----------|-| 
|-3------6-6-------|-3----------------3-1--|-| 
|-2------7-7-------|-----------------------|-| 
|-0----------------|-----------------------|-| 
|------------------|-----------------------|-| 
|------------------|-----------------------|-| 
| E 
| 
| E  E E E E E E E   E  E E E E E  E  E 
|------------------|-----------------------|-| 
|------------------|-----------------------|-| 
|-5--5-5-5-5-5-5-5-|-5--5-5-5-5-5--5--5----|-| 
|------------------|-----------------------|-| 


                       C                 Cmaj7             Dm 
                       Gtr III 
  Q.       S S H       E E E E E E E E   E E E E E E E E   E  E E E E E E E 
|----------5-3-5---||--0-0-0-0-0-0-0-0-|-0-0-0-0-0-0-0-0-|-1--1-1-1-1-1-1-1-| 
|-3----------------||o-1-1-1-1-1-1-1-1-|-0-0-0-0-0-0-0-0-|-3--3-3-3-3-3-3-3-| 
|------------------||--0-0-0-0-0-0-0-0-|-0-0-0-0-0-0-0-0-|-2--2-2-2-2-2-2-2-| 
|------------------||--2-2-2-2-2-2-2-2-|-2-2-2-2-2-2-2-2-|-0--0-0-0-0-0-0-0-| 
|------------------||o-3-3-3-3-3-3-3-3-|-3-3-3-3-3-3-3-3-|------------------| 
|------------------||------------------|-----------------|------------------| 
| 
| E  E E E E E E E     H       H         H       H         Q.     E H 
|------------------||------------------|-----------------|------------------| 
|------------------||o-----------------|-----------------|-0------0-0-------| 
|-5--5-5-5-5-5-5-5-||o-3-------3-------|-3-------3-------|------------------| 
|------------------||------------------|-----------------|------------------| 


  G6       G7              F 
  E  E E E E E E E         E E E E E E E E 
|-0--0-0-0-1-1-1-1--||-||--1-1-1-1-1-1-1-1-| 
|-0--0-0-0-0-0-0-0-o||-||o-1-1-1-1-1-1-1-1-| 
|-0--0-0-0-0-0-0-0--||-||--2-2-2-2-2-2-2-2-| 
|-0--0-0-0-0-0-0-0--||-||--3-3-3-3-3-3-3-3-| 
|-2--2-2-2-2-2-2-2-o||-||o-3-3-3-3-3-3-3-3-| 
|-3--3-3-3-3-3-3-3--||-||--1-1-1-1-1-1-1-1-| 
| 
| Q.     E H               H       H 
|-------------------||-||------------------| 
|------------------o||-||o-----------------| 
|------------------o||-||o-----------------| 
|-3------3-3--------||-||--1-------1-------| 


  Am                 Dm 
  E E E E E E E E    E E E E E E E E 
|-0-0-0-0-0-0-0-0--|-1-1-1-1-1-1-1-1---| 
|-1-1-1-1-1-1-1-1--|-3-3-3-3-3-3-3-3---| 
|-2-2-2-2-2-2-2-2--|-2-2-2-2-2-2-2-2---| 
|-2-2-2-2-2-2-2-2--|-0-0-0-0-0-0-0-0---| 
|-0-0-0-0-0-0-0-0--|-------------------| 
|------------------|-------------------| 
| 
| H       H          H       H 
|------------------|-------------------| 
|------------------|-0-------0---------| 
|-0-------0--------|-------------------| 
|------------------|-------------------| 


  1.                  2. 
  Dm7                                   Em 
                                        Gtr I 
  E E E E E E E E     E E E E E E E E   E E E E E E E E   E E E E E E E E 
|-1-1-1-1-1-1-1-1--||-1-1-1-1-1-1-1-1-|-----------------|-----------------| 
|-1-1-1-1-1-1-1-1-o||-1-1-1-1-1-1-1-1-|-----0---1---0---|-----0---1---0---| 
|-2-2-2-2-2-2-2-2--||-2-2-2-2-2-2-2-2-|---0---0---0---0-|---0---0---0---0-| 
|-0-0-0-0-0-0-0-0--||-0-0-0-0-0-0-0-0-|-2---------------|-2---------------| 
|-----------------o||-----------------|-----------------|-----------------| 
|------------------||-----------------|-----------------|-----------------| 
| 
| E E E E E E E E     E E E E E E E E 
|------------------||-----------------|-----------------|-----------------| 
|-----------------o||-----------------|-----------------|-----------------| 
|-3-3-3-3-3-3-3-3-o||-----------------|-----------------|-----------------| 
|------------------||-3-3-3-3-3-3-3-3-|-----------------|-----------------| 


  Fb5                                 Em 
  E E E E E E E E   E E E E E E E E   E E E E E E E E   E E E E E E E E 
|-----------------|-----------------|-----------------|-----------------| 
|-----0---1---0---|-----0---1---0---|-----0---1---0---|-----0---1---0---| 
|---2---2---2---2-|---2---2---2---2-|---0---0---0---0-|---0---0---0---0-| 
|-3---------------|-3---------------|-2---------------|-2---------------| 
|-----------------|-----------------|-----------------|-----------------| 
|-----------------|-----------------|-----------------|-----------------| 


  Fb5 
  E E E E E E E E   +W 
|-----------------|--------| 
|-----0---1---0---|--------| 
|---2---2---2---0-|-(0)----| 
|-3---------------|--------| 
|-----------------|--------| 
|-----------------|--------| 


Duration Legend 
--------------- 
W - whole; H - half; Q - quarter; E - 8th; S - 16th; T - 32nd; X - 64th; a - acciaccatura 
+ - note tied to previous; . - note dotted; .. - note double dotted 
Uncapitalized letters represent notes that are staccato (1/2 duration) 
Irregular groupings are notated above the duration line 
Duration letters will always appear directly above the note/fret number it represents the 
duration for.  Duration letters with no fret number below them represent rests.  Multi- 
bar rests are notated in the form Wxn, where n is the number of bars to rest for.  Low 
melody durations appear below the staff 

Tablature Legend 
---------------- 
 h   - hammer-on 
 p   - pull-off 
 b   - bend 
 pb  - pre-bend 
 r   - bend release (if no number after the r, then release immediately) 
 /\  - slide into or out of (from/to 'nowhere') 
 s   - legato slide 
 S   - shift slide 
 - natural harmonic 
n  - artificial harmonic 
n(n) - tapped harmonic 
 ~   - vibrato 
 tr  - trill 
 T   - tap 
 TP  - trem. picking 
 PM  - palm muting 
\n/  - tremolo bar dip; n = amount to dip 
 \n  - tremolo bar down 
 n/  - tremolo bar up 
/n\  - tremolo bar inverted dip 
 =   - hold bend; also acts as connecting device for hammers/pulls 
 <> - volume swell (louder/softer) 
 x   - on rhythm slash represents muted slash 
 o   - on rhythm slash represents single note slash 

 
share this page

See Also: