E-Chords
We Are The In Crowd

Rumor Mill (acoustic)(Tabs)

We Are The In Crowd

roll up this ad to continue

 

INTRO
 
D|---0-----0-----0----------| 
G|---0-----0-----0----------| 
G|---4-----0-----5----------| 
C|---2-----2-----0----------| (2x) 
G|---0-----2-----0----------| 
C|---0-----2-----0----------| 

VERSE 

D|-------0-------0-------0-------0-------0-------0-------0-------0---| 
G|-----0---0---0---0---0---0---0---0---0---0---0---0---0---0---0---0-| 
G|---4-------4-------4-------4-------2-------2-------2-------2-------| 
C|-------------------------------------------------------------------| 
G|-------------------------------------------------------------------| 
C|-------------------------------------------------------------------| 

D|------0-------0-------0-------0-------0-------0-------0-------0----| 
G|----0---0---0---0---0---0---0---0---0---0---0---0---0---0---0---0--| 
G|--5-------5-------5-------5-------5-------5-------5-------5--------| 
C|-------------------------------------------------------------------| 
G|-------------------------------------------------------------------| 
C|-------------------------------------------------------------------| 

D|---0-------0-------0-------------------| 
G|---0-------0-------0-------------------| 
G|---4-------0-------5-------------------| 
C|---2-------2-------0-------------------| 
G|---0-------2-------0-------------------| 
C|---0-------2-------0-------------------| 

PRE-CHORUS
 
D|-----0-------0------0--0---0--0-----0------0------0----------| 
G|-----0-------0------0--0---0--0-----0------0------0----------| 
G|-----0-------5------4--2---4--2-----0------5------0----------| 
C|-----4-------0------2--0---2--0-----4------0------2----------| 
G|-----4-------0------0--0---0--0-----4------0------2----------| 
C|-----4-------0------0--0---0--0-----4------0------2----------| 

CHORUS
 
D|---0-----0-----0-----0------0------0------0-----------| 
G|---0-----0-----0-----0------0------0------0-----------| 
G|---5-----4-----0-----0------5------4------0-----------| 
C|---0-----2-----2-----4------0------2------2-----------| (2x) 
G|---0-----0-----2-----4------0------0------2-----------| 
C|---0-----0-----2-----4------0------0------2-----------| 

POST-CHORUS
 
D|----0-----0------0-------------| 
G|----0-----0------0-------------| 
G|----4-----0------0-------------| 
C|----2-----2------0-------------| 
G|----0-----2------0-------------| 
C|----0-----2------0-------------| 

VERSE 2 

D|----0-----0-----0-----0-----0-----0-----0-----0----------| 
G|----0-----0-----0-----0-----0-----0-----0-----0----------| 
G|----4-----0-----5-----4-----0-----0-----0-----5----------| 
C|----2-----2-----0-----2-----2-----4-----2-----0----------| 
G|----0-----2-----0-----0-----2-----4-----2-----0----------| 
C|----0-----2-----0-----0-----2-----4-----2-----0----------| 

REPEAT PRE-CHORUS 
REPEAT CHORUS 

BRIDGE 

D|--0--0--0----0----0-----0-----0-----0----0-----0-----0--------| 
G|--0--0--0----0----0-----0-----0-----0----0-----0-----0--------| 
G|--0--0--0----5----0-----4-----0-----5----0-----0-----0--------| 
C|--4--2--4----4----0-----2-----2-----4----4-----0-----2--------| 
G|--4--2--4----2----0-----0-----2-----2----4-----0-----2--------| 
C|--4--2--4----0----0-----0-----2-----0----4-----0-----2--------| 

D|---0----0----0--------| 
G|---0----0----0--------| 
G|---4----0----5--------| 
C|---2----2----0--------| (2x) 
G|---0----2----0--------| 
C|---0----2----0--------| 

REPEAT CHORUS 

end on this!
 
D|-----0--------| 
G|-----0--------| 
G|-----0--------| 
C|-----0--------|  
G|-----0--------| 
C|-----0--------| 

 
share this page

See Also: