E-Chords
We Are The In Crowd

Dreaming Out Loud(Tabs)

We Are The In Crowd

roll up this ad to continue

Key: D
Drop D 

Main Riff 
|---------------------------------------------------------| 
|---------------------------------------------------------| 
|----------------------------------------4----------------| 
|------------7-------------7---------------------------2--|     x2 
|------------------------------2-2-2-2-2------------------| 
|-4-4-4-4-4------4-4-4-4-4-------------------0-0-0-0-0----| 

Intro 
|-------------------------------------| 
|-------------------------------------| 
|-------------------------------------| 
|-9-9/11-9-11-11-11-9--9--9/11-11-11--| 
|-7-7/9--7-11-11-11-9--9--9/11-11-11--| 
|----------11-11-11-9--9--9/11-11-11--| 
                                                     x2 
|----------------------------------| 
|----------------------------------| 
|----------------------------------| 
|-9-9/11-9-11-11-11-9--9--9\7-7-7--| 
|-7-7/9--7-11-11-11-9--9--9\7-7-7--| 
|----------11-11-11-9--9--9\7-7-7--| 

Verse 
|---------------------------------------------------| 
|---------------------------------------------------| 
|---------------------------------------------------| 
|-4x-4x-4~~~-----------7x-7x-7~~-----0x-0x-0~---/2--| 
|-4x-4x-4~~~-----------7x-7x-7~~-----0x-0x-0~---/2--| 
|-4x-4x-4~~~-----------7x-7x-7~~-----0x-0x-0~---/2--| 

|---------------------------------------------------| 
|---------------------------------------------------| 
|---------------------------------------------------| 
|-4x-4x-4~~~-----------7x-7x-7~~------6-6-6--9-9-9--| 
|-4x-4x-4~~~-----------7x-7x-7~~------4-4-4--7-7-7--| 
|-4x-4x-4~~~-----------7x-7x-7~~--------------------| 

|-------------------------------------------------------------| 
|-------------------------------------------------------------| 
|-------------------------------------------------------------| 
|-11-11\9-9/11-11---11-11\9-9/11-11--14-14-14-14-11-11-11-14--| 
|-9--9-\7-7/9--9----9--9-\7-7/9--9---12-12-12-12-11-11-11-14--| 
|------------------------------------------------11-11-11-14--| 

|-------------------------------------------------------------| 
|-------------------------------------------------------------| 
|-------------------------------------------------------------| 
|-11-11\9-9/11-11---11-11\9-9/11-11--14-14-14-14-16-16-16-16--| 
|-9--9-\7-7/9--9----9--9-\7-7/9--9---12-12-12-12-14-14-14-14--| 
|-------------------------------------------------------------| 

Chorus 
|------------------------------------------------------------------| 
|------------------------------------------------------------------| 
|------------------------------------------------------------------| 
|-0-0-0-0-0-0-0-0-7-7-7-7-7-7-7-7-2-2-2-2-2-2-2-2-2-2-2-2-2-2-2-2--|   x2 
|-0-0-0-0-0-0-0-0-7-7-7-7-7-7-7-7-2-2-2-2-2-2-2-2-2-2-2-2-2-2-2-2--| 
|-0-0-0-0-0-0-0-0-7-7-7-7-7-7-7-7-2-2-2-2-2-2-2-2-2-2-2-2-2-2-2-2--| 

|------------------------------------------------------------------| 
|------------------------------------------------------------------| 
|------------------------------------------------------------------| 
|-4-4-4-4-4-4-4-4-0-0-0-0-0-0-0-0-2-2-2-2-2-2-2-2-2-2-2-2-2-2-2-2--| 
|-4-4-4-4-4-4-4-4-0-0-0-0-0-0-0-0-2-2-2-2-2-2-2-2-2-2-2-2-2-2-2-2--| 
|-4-4-4-4-4-4-4-4-0-0-0-0-0-0-0-0-2-2-2-2-2-2-2-2-2-2-2-2-2-2-2-2--| 

|------------------------------------------------------------------| 
|------------------------------------------------------------------| 
|------------------------------------------------------------------| 
|-0-0-0-0-0-0-0-0-7-7-7-7-7-7-7-7-2-2-2-2-2-2-2-2-2----------------| 
|-0-0-0-0-0-0-0-0-7-7-7-7-7-7-7-7-2-2-2-2-2-2-2-2-2----------------| 
|-0-0-0-0-0-0-0-0-7-7-7-7-7-7-7-7-2-2-2-2-2-2-2-2-2----------------| 

Post Chorus 
|-------------------------------------| 
|-------------------------------------| 
|-------------------------------------| 
|-9-9/11-9-11-11-11-9--9--9/11-11-11--| 
|-7-7/9--7-11-11-11-9--9--9/11-11-11--| 
|----------11-11-11-9--9--9/11-11-11--| 

|----------------------------------| 
|----------------------------------| 
|----------------------------------| 
|-9-9/11-9-11-11-11-9--9--9\7-7-7--| 
|-7-7/9--7-11-11-11-9--9--9\7-7-7--| 
|----------11-11-11-9--9--9\7-7-7--| 

Verse 
|---------------------------------------------------| 
|---------------------------------------------------| 
|---------------------------------------------------| 
|-4x-4x-4~~~-----------7x-7x-7~~-----0x-0x-0~---/2--| 
|-4x-4x-4~~~-----------7x-7x-7~~-----0x-0x-0~---/2--| 
|-4x-4x-4~~~-----------7x-7x-7~~-----0x-0x-0~---/2--| 

|---------------------------------------------------| 
|---------------------------------------------------| 
|---------------------------------------------------| 
|-4x-4x-4~~~-----------7x-7x-7~~------6-6-6--9-9-9--| 
|-4x-4x-4~~~-----------7x-7x-7~~------4-4-4--7-7-7--| 
|-4x-4x-4~~~-----------7x-7x-7~~--------------------| 

|-------------------------------------------------------------| 
|-------------------------------------------------------------| 
|-------------------------------------------------------------| 
|-11-11\9-9/11-11---11-11\9-9/11-11--14-14-14-14-11-11-11-14--| 
|-9--9-\7-7/9--9----9--9-\7-7/9--9---12-12-12-12-11-11-11-14--| 
|------------------------------------------------11-11-11-14--| 

|-------------------------------------------------------------| 
|-------------------------------------------------------------| 
|-------------------------------------------------------------| 
|-11-11\9-9/11-11---11-11\9-9/11-11--14-14-14-14-16-16-16-16--| 
|-9--9-\7-7/9--9----9--9-\7-7/9--9---12-12-12-12-14-14-14-14--| 
|-------------------------------------------------------------| 

Chorus 
|------------------------------------------------------------------| 
|------------------------------------------------------------------| 
|------------------------------------------------------------------| 
|-0-0-0-0-0-0-0-0-7-7-7-7-7-7-7-7-2-2-2-2-2-2-2-2-2-2-2-2-2-2-2-2--|   x2 
|-0-0-0-0-0-0-0-0-7-7-7-7-7-7-7-7-2-2-2-2-2-2-2-2-2-2-2-2-2-2-2-2--| 
|-0-0-0-0-0-0-0-0-7-7-7-7-7-7-7-7-2-2-2-2-2-2-2-2-2-2-2-2-2-2-2-2--| 

|------------------------------------------------------------------| 
|------------------------------------------------------------------| 
|------------------------------------------------------------------| 
|-4-4-4-4-4-4-4-4-0-0-0-0-0-0-0-0-2-2-2-2-2-2-2-2-2-2-2-2-2-2-2-2--| 
|-4-4-4-4-4-4-4-4-0-0-0-0-0-0-0-0-2-2-2-2-2-2-2-2-2-2-2-2-2-2-2-2--| 
|-4-4-4-4-4-4-4-4-0-0-0-0-0-0-0-0-2-2-2-2-2-2-2-2-2-2-2-2-2-2-2-2--| 

|------------------------------------------------------------------| 
|------------------------------------------------------------------| 
|------------------------------------------------------------------| 
|-0-0-0-0-0-0-0-0-7-7-7-7-7-7-7-7-2-2-2-2-2-2-2-2-2-2-2-2-2-2-2-2--| 
|-0-0-0-0-0-0-0-0-7-7-7-7-7-7-7-7-2-2-2-2-2-2-2-2-2-2-2-2-2-2-2-2--| 
|-0-0-0-0-0-0-0-0-7-7-7-7-7-7-7-7-2-2-2-2-2-2-2-2-2-2-2-2-2-2-2-2--| 

Bridge 
|---------------------------------------------------------| 
|---------------------------------------------------------| 
|----------------------------------------4----------------| 
|------------7-------------7---------------------------2--|     x2 
|------------------------------2-2-2-2-2------------------| 
|-4-4-4-4-4------4-4-4-4-4-------------------0-0-0-0-0----| 

At this point, one guitar plays the main riff twice again while the other plays this... 

|-9-9-9-9-9-9-9-9-9-9-9-9-9-9-9-9--| 
|----------------------------------| 
|----------------------------------| 
|----------------------------------| 
|----------------------------------| 
|----------------------------------| 
                                                            x2 
|-12-12-12-12-12-12-12-12-10-10-10-10-10-10-10-10--| 
|--------------------------------------------------| 
|--------------------------------------------------| 
|--------------------------------------------------| 
|--------------------------------------------------| 
|--------------------------------------------------| 

Final Chorus 
|------------------------------------------------------------------| 
|------------------------------------------------------------------| 
|------------------------------------------------------------------| 
|-4-4-4-4-4-4-4-4-0-0-0-0-0-0-0-0-2-2-2-2-2-2-2-2-2-2-2-2-2-2-2-2--| 
|-4-4-4-4-4-4-4-4-0-0-0-0-0-0-0-0-2-2-2-2-2-2-2-2-2-2-2-2-2-2-2-2--| 
|-4-4-4-4-4-4-4-4-0-0-0-0-0-0-0-0-2-2-2-2-2-2-2-2-2-2-2-2-2-2-2-2--| 

|------------------------------------------------------------------| 
|------------------------------------------------------------------| 
|------------------------------------------------------------------| 
|-0-0-0-0-0-0-0-0-7-7-7-7-7-7-7-7-2-2-2-2-2-2-2-2-2-2-2-2-2-2-2-2--| 
|-0-0-0-0-0-0-0-0-7-7-7-7-7-7-7-7-2-2-2-2-2-2-2-2-2-2-2-2-2-2-2-2--| 
|-0-0-0-0-0-0-0-0-7-7-7-7-7-7-7-7-2-2-2-2-2-2-2-2-2-2-2-2-2-2-2-2--| 

Outro 
|-------------------------------------| 
|-------------------------------------| 
|-------------------------------------| 
|-9-9/11-9-11-11-11-9--9--9/11-11-11--| 
|-7-7/9--7-11-11-11-9--9--9/11-11-11--| 
|----------11-11-11-9--9--9/11-11-11--| 
                                                     x2 
|----------------------------------| 
|----------------------------------| 
|----------------------------------| 
|-9-9/11-9-11-11-11-9--9--9\7-7-7--| 
|-7-7/9--7-11-11-11-9--9--9\7-7-7--| 
|----------11-11-11-9--9--9\7-7-7--| 
share this page

See Also: