E-Chords
We Are Defiance

It's Not A Problem Unless You Make It One(Tabs)

We Are Defiance

 

I'm not too sure about the accuracy of the intro, I think it sounds close though. 
D|---------------------------------------------------------------------------| 
A|---------------------------------------------------------------------------| 
F|---------------------------------------------------------------------------| 
C|---------------------------------------------------------------------------| X2 
G|---------5----------------5---------------5-------5-5555-5/8--8-8-8-8-8----| 
C|-0-000-00---000-000-000-00--000-000-000-00--000-008-8888-8/12-1212121212---| 
     **  **   **  **  **  **  **  **  **  **  **  **  ****      * * * * 
D|---------------------------------------------------------------------------| 
A|---------------------------------------------------------------------------| 
F|---------------------------------------------------------------------------| 
C|---------------------------------------------------------------------------| X4 
G|---------------------------------------------------------------------------| 
C|-88833337712121212121288833337722222222------------------------------------| 


I don't know the exact strumming pattern for the CHORUS so I'll just give you  
the order the notes are played. 
D|---------------------------------------------------------------------------| 
A|---------------------------------------------------------------------------| 
F|---------------------------------------------------------------------------| 
C|-0~~~~~---8-5-0-3-8-5-0-3-0~~~~~~------------------------------------------| 
G|-0~~~~~---8-5-0-3-8-5-0-3-0~~~~~~0-----------------------------------------| 
C|-0~~~~~---8-5-0-3-8-5-0-3-0~~~~~~0-----------------------------------------| 
                                   * 
Both guitars  
D|---------------------------------------------------------------------------| 
A|---------------------------------------------------------------------------| 
F|------_____________________X2_______________________-----------------------| 
C|-----/----------------------------------------------\-----------------------| 
G|-0-0--00000-0-0-0--0-0-0-0--00000--0-0-0--000-000-0------------------------| 
C|-0-0--00000-0-0-0--0-0-0-0--00000--0-0-0--000-000-0------------------------| 
   * *  ***** * * *  * * * *  *****  * * *  *** *** * 
Then one guitar plays that breakdown four more times while the other plays this four times 
D|---------------------------------------------------------------------------| 
A|-24-24-23-23---------------------------------------------------------------| 
F|-------------23-23-19-19--15/19-15/19--------------------------------------| 
C|---------------------------------------------------------------------------| 
G|---------------------------------------------------------------------------| 
C|---------------------------------------------------------------------------| 

The play the chorus again then.... 

D|-------------------------| 
A|-------------------------| 
F|-------------------------| 
C|-0~~~~~~~~~~0~~~~~~~~----| 
G|-0~~~~~~~~~~0~~~~~~~~----| 
C|-0~~~~~~~~~~0~~~~~~~~----| 


YOU'LL NEVER BEAT ME! 
Both guitars 
D|----------------------------| 
A|----------------------------|   I couldn't think of a better way to show 
F|----------------------------|   how to play this, I hope you get the idea 
C|----------------------------|X2 of how it's played. 
G|---000000---00000-000-000---| 
C|-00000000000000000000-000---| 
   ******************** *** 
One guitar does this, the other guitar does that little solo 
D|-----------------------------------------------------------------| 
A|-----------------------------------------------------------------| 
F|-----------------------------------------------------------------|  
C|-----------------------------------------------------------------| 
G|-0-0-000000--000000--000-000-X2--0-0-000000--000000-0-0-0-0-X2---|  
C|-0-0-000000--000000--000-000-----0-0-000000--000000-0-0-0-0------| 
   * * ******  ******  *** ***     * * ******  ****** * * * *                       
D|---------------|   ^_______________             
A|---------------|                   \   
F|---------------|                    \ 
C|-0~~~~~--------|X2 then go back here| 
G|-0~~~~~000-000-|   and play the first part for the   
C|-0~~~~~000-000-|   rest of the song. 
         *** *** 
 

roll up this ad to continue

share this page

See Also: