E-Chords
Wayne Shorter

Witch Hunt(Tabs)

Wayne Shorter

Key: Cm
Intro       
            
   +   1 +  2  + 3 + 4 +   1 +   2 +   3 +  4 +   1 +   2 +   3 +  4e +     
e|----|-------------------|----------------------|------------------------| 
B|--34|6-43-43---3--------|3---------------------|5-42--------------------| 
G|-5--|----5--53-3--3--235|--532-5-32--4--------4|----4-3-1--------------1| 
D|----|-------------5-----|----------5-4--4----4-|---------43-2--1--1-1-1-| 
A|----|-------------------|---------------4---4--|------------2--4--------| 
E|----|-------------------|----------------------|------------------------| 
  
  1 + 2 +     3 + 4 +              Cm7 
e|------1-----1-------|-----------|----------|----------|-----------|-------| 
B|2-----4-4-----------|-----------|4---------|----------|-----------|-------| 
G|1--3----3-1-1-------|-----------|----------|----------|-----------|-------| 
D|----------3---------|-----------|5---------|----------|-----------|-------| 
A|--------------------|-----------|----------|----------|-----------|-------| 
E|--------------------|-----------|----------|----------|-----------|-------| 

A 
  Cm7                      G7(#9)   Cm7                        G7(#9) 
e|----------------|----------------|----------------|----------------| 
B|----------4-4---|4---------------|----------------|----------------| 
G|--3-3---3-----3-|--3-3---3-------|----------------|----------------| 
D|3-----3---------|------3-----3---|----------------|----------------| 
A|----------------|----------------|----------------|----------------| 
E|----------------|----------------|----------------|----------------| 

 Cm7                      G7(#9)   Cm7                         
e|----------------|----------------|----------------|----------------| 
B|----------4-4---|4---------------|----------------|----------------| 
G|--3-3---3-----3-|--3-3---3-------|----------------|----------------| 
D|3-----3---------|------3-----3---|----------------|----------------| 
A|----------------|----------------|----------------|----------------| 
E|----------------|----------------|----------------|----------------| 

  Eb7                                                          G7(#9) 
e|----------------|----------------|----------------|----------------| 
B|----------4-4---|4-----4---6-----|----------------|----------------| 
G|--3-3---3-----3-|--3-3---5-------|----------------|----------------| 
D|3-----3---------|----------------|----------------|----------------| 
A|----------------|----------------|----------------|----------------| 
E|----------------|----------------|----------------|----------------| 

 Cm7                      G7(#9)   Cm7                         
e|----------------|----------------|----------------|----------------| 
B|----------4-4---|4---------------|----------------|--------------9-| 
G|--3-3---3-----3-|--3-3---3-------|----------------|----------8-8---| 
D|3-----3---------|------3-----3---|----------------|--------8-------| 
A|----------------|----------------|----------------|----------------| 
E|----------------|----------------|----------------|----------------| 

  Gb7              F7               E7    Eb7 
e|9-------------8-|--------------8-|9-----8---------|----------------| 
B|----------------|----------9-9---|----------------|----------------| 
G|----------------|--------8-------|----------------|----------------| 
D|----------------|----------------|----------------|----------------| 
A|----------------|----------------|----------------|----------------| 
E|----------------|----------------|----------------|----------------| 

                                   |--Every--Ending--but--Final------| 
  Abm7             Amaj7/Ab        |Abm7             Amaj7/Ab   G7#5#9 
e|----------------|----------------|----------------|----------------| 
B|--7-7---7-------|----------7-7---|--------------7-|7---------------| 
G|6-----6---------|--------6-----6-|------------6---|--6-------------| 
D|----------------|----------------|----------------|----------------| 
A|----------------|----------------|----------------|----------------| 
E|----------------|----------------|----------------|----------------| 
  
 |---Last--Time--Only--------------| 
 |Abm7                       Abm11 | 
e|----------------|----------------| 
B|--------------7-|7---------------| 
G|------------6---|--6-------------| 
D|----------------|----------------| 
A|----------------|----------------| 
E|----------------|----------------| 

roll up this ad to continue

share this page

See Also: