E-Chords
Wayne Shorter

Adams Apple(Tabs)

Wayne Shorter

Key: Ab

   Ab 7 

e|--------|------|------------------|-----------------|-----|---------------|------|----| 
B|--------|------|------------------|-----------------|-----|---------------|------|----| 
G|--------|------|---------3--------|---------3-------|-3---|--------3------|------|----| 
D|-6------|------|---4-6-4---4-6----|---4-6-4---4-6-4-|-----|------------3--|------|----| 
A|--------|------|------------------|-----------------|-----|------3--------|------|----| 
E|--------|------|------------------|-----------------|-----|---------------|------|----| 

   Gb 7                                                 Ab7 

e|--------|------|------------------|-----------------|-----|---------------|------|----| 
B|--------|------|------------------|-----------------|-----|---------------|------|----| 
G|--------|------|---------3--------|---------3-------|-3---|--------3------|------|----| 
D|-6------|------|---4-6-4---4-6----|---4-6-4---4-6-4-|-----|------------3--|------|----| 
A|--------|------|------------------|-----------------|-----|------3--------|------|----| 
E|--------|------|------------------|-----------------|-----|---------------|------|----| 


   Abm7    Db7               Bbm7              Eb7              Ab7             

e|-------|-----------------|-----------------|-----------------|------|-----------------|----| 
B|-------|-----------------|-------------4---|-6---7-6-4-------|------|-----------------|----| 
G|-3-----|-----3---6---3---|-----3---6-------|-----------6-4---|------|-------------3---|----| 
D|-------|---6---6---6-----|---6---6---6---6-|-----------------|------|-----------------|----| 
A|-------|-----------------|-----------------|-----------------|------|-----------------|----| 
E|-------|-----------------|-----------------|-----------------|------|-----------------|----| 

roll up this ad to continue

share this page

See Also: