E-Chords
Vivaldi

Inverno - Largo(Tabs)

Vivaldi

Key: F

roll up this ad to continue

        
e|--------18----16----15----|--------------------------|--------16----15----------| 
B|--16----------------------|--18----16----18----------|--------------------18----| 
G|--------------------------|--------------------15----|--15----------------------| 
D|--------------------------|--------------------------|--------------------------| 
A|--------------------------|--------------------------|--------------------------| 
E|--------------------------|--------------------------|--------------------------| 


                                                                                  
e|--------------16----18----|--16----15----15----------|--15----16----18----20----| 
B|--16----15----------------|--------------------18----|--------------------------| 
G|--------------------------|--------------------------|--------------------------| 
D|--------------------------|--------------------------|--------------------------| 
A|--------------------------|--------------------------|--------------------------| 
E|--------------------------|--------------------------|--------------------------| 


                                                                                  
e|--22----------------15----|--16----18----20----------|--------------15----16----| 
B|--------16----18----------|--------------------15----|--16----18----------------| 
G|--------------------------|--------------------------|--------------------------| 
D|--------------------------|--------------------------|--------------------------| 
A|--------------------------|--------------------------|--------------------------| 
E|--------------------------|--------------------------|--------------------------| 


                                                                                  
e|--18----------------------|--13----15----------------|--------------------------| 
B|--------13----15----16----|--------------16----15----|--------------------18----| 
G|--------------------------|--------------------------|--15----14----15----------| 
D|--------------------------|--------------------------|--------------------------| 
A|--------------------------|--------------------------|--------------------------| 
E|--------------------------|--------------------------|--------------------------| 


                                                                                  
e|--------------------15----|--------------------17----|--------------------18----| 
B|--------------------------|--------------------------|--18----16----18----------| 
G|--15----14----15----------|--15----14----15----------|--------------------------| 
D|--------------------------|--------------------------|--------------------------| 
A|--------------------------|--------------------------|--------------------------| 
E|--------------------------|--------------------------|--------------------------| 


                                                       
e|--------18----18----17----|--15----------------------| 
B|--------------------------|--------18----16----15----| 
G|--15----------------------|--------------------------| 
D|--------------------------|--------------------------| 
A|--------------------------|--------------------------| 
E|--------------------------|--------------------------| 


               
              Várias vezes rápido                                                               
e|------------------------------------------------------------| 
B|--------------13^15^13^15^13^15^13--------11----------------| 
G|--17----15--------------------------------------------------| 
D|------------------------------------------------------------| 
A|------------------------------------------------------------| 
E|------------------------------------------------------------| 


                                                       
e|--------------------------|--------------------------| 
B|--------18----16----15----|--13----11----13----------| 
G|--15----------------------|--------------------------| 
D|--------------------------|--------------------15----| 
A|--------------------------|--------------------------| 
E|--------------------------|--------------------------| 


                                                                       
e|----------------------------------|--------------16--15--------------| 
B|------16--15--13--11--10--16--18--|--16--15--------------18--16--15--| 
G|----------------------------------|----------15----------------------| 
D|--15------------------------------|----------------------------------| 
A|----------------------------------|----------------------------------| 
E|----------------------------------|----------------------------------| 


                                                                       
e|--16--18--16--15--15--------------|--13--15--16----------13--15--16--| 
B|----------------------13--15--16--|--------------15--16--------------| 
G|----------------------------------|----------------------------------| 
D|----------------------------------|----------------------------------| 
A|----------------------------------|----------------------------------| 
E|----------------------------------|----------------------------------| 


                                                                 
e|--18----------15--16--18--20--------|--------------------------| 
B|------16--18------------------15----|--15----16----18----15----| 
G|------------------------------------|--------------------------| 
D|------------------------------------|--------------------------| 
A|------------------------------------|--------------------------| 
E|------------------------------------|--------------------------| 


                                                                                  
e|--------------15----16----|--18----15----------------|--------------------------| 
B|--------------------------|--------------18----------|--15----16----18----15----| 
G|--17----15----------------|--------------------15----|--------------------------| 
D|--------------------------|--------------------------|--------------------------| 
A|--------------------------|--------------------------|--------------------------| 
E|--------------------------|--------------------------|--------------------------| 


                                                                     
e|--------------15----16----|--18----15----------------| 
B|--------------------------|--------------18----------| 
G|--17----15----------------|--------------------15----| 
D|--------------------------|--------------------------| 
A|--------------------------|--------------------------| 
E|--------------------------|--------------------------| 


                                               várias vezes até cansar                                   
e|--------18----15----------|-----------------------------------------------------| 
B|--18----------------18----|--16----15----16----16^18^16^18^16^18^16---------16--| 
G|--------------------------|-----------------------------------------------------| 
D|--------------------------|-----------------------------------------------------| 
A|--------------------------|-----------------------------------------------------| 
E|--------------------------|-----------------------------------------------------|
        

Written by Vivaldi

share this page

See Also: