E-Chords
Villancicos

Jingle Bells(Tabs)

Villancicos

roll up this ad to continue

Key: C
Forma 1 

 
   C      C      C       (C)   F        C        G        G 
E|-0-0-0--0-0-0--0-3------0--|-1-1-1-1--0-0-0-0--------0----3-| 
B|-1------1------1---1-3-(1)-|-1--------1--------3-3-3----3---| 
G|-0------0------0-------(0)-|-2--------0--------0--------0---| 
D|-2------2------2-------(2)-|-3--------2--------0--------0---| 
A|-3------3------3-------(3)-|-3--------3--------2--------2---| 
E|---------------------------|-1-----------------3--------3---| 
 

 
   C      C      C       (C)   F        C        G        C 
E|-0-0-0--0-0-0--0-3------0--|-1-1-1-1--0-0-0-0--3-3-0--------| 
B|-1------1------1---1-3-(1)-|-1--------1--------3-----3--1---| 
G|-0------0------0-------(0)-|-2--------0--------0--------0---| 
D|-2------2------2-------(2)-|-3--------2--------0--------2---| 
A|-3------3------3-------(3)-|-3--------3--------2--------3---| 
E|---------------------------|-1-----------------3------------| 
 

Forma 2 

 
E|-0-0-0--0-0-0--0-3------0--|-1-1-1-1--0-0-0-0--------0----3-| 
B|-------------------1-3-----|-------------------3-3-3----3---| 
G|---------------------------|--------------------------------| 
D|---------------------------|--------------------------------| 
A|---------------------------|--------------------------------| 
E|---------------------------|--------------------------------| 
 

 
E|-0-0-0--0-0-0--0-3------0--|-1-1-1-1--0-0-0-0--3-3-0--------| 
B|-------------------1-3-----|-------------------------3--1---| 
G|---------------------------|--------------------------------| 
D|---------------------------|--------------------------------| 
A|---------------------------|--------------------------------| 
E|---------------------------|--------------------------------| 
 

Forma 3 

 
   C      C      C      C    F      C      G        G 
E|-0------0------0------0--|-1------0------3--------3---| 
B|-1------1------1------1--|-1------1------3--------3---| 
G|-0------0------0------0--|-2------0------0--------0---| 
D|-2------2------2------2--|-3------2------0--------0---| 
A|-3------3------3------3--|-3------3------2--------2---| 
E|-------------------------|-1-------------3--------3---| 
 

   C      C      C      C    F      C      G      C 
E|-0------0------0------0--|-1------0------3------0---| 
B|-1------1------1------1--|-1------1------3------1---| 
G|-0------0------0------0--|-2------0------0------0---| 
D|-2------2------2------2--|-3------2------0------2---| 
A|-3------3------3------3--|-3------3------2------3---| 
E|-------------------------|-1-------------3----------|
share this page

See Also: