E-Chords
Very Okay

No One Kicks You Here Bruno(Tabs)

Very Okay

roll up this ad to continue

Tuning: Standard 

BASS INTRO / VERSE 
G|----------------------------------| 
D|----------------------------------| 
A|-----------------4-4-4-4-2-2-2-2--| 
E|-5-5-5-4-5-5-5-4------------------| 

Pre-Chorus (x2) 
'and you're so cool, all alone in your room' 
e|-------------------------------------------------| 
B|-------------------------------------------------| 
G|-------------------------------------------------| 
D|-4--4--4--4--4--4--4--4--5--5--5--5--5--5--5--5--| 
A|-4--4--4--4--4--4--4--4--5--5--5--5--5--5--5--5--| 
E|-2--2--2--2--2--2--2--2--3--3--3--3--3--3--3--3--| 

e|--------------------------| 
B|--------------------------| 
G|--------------------------| 
D|-7--7--7--7--11-11-11-11--| (x2) 
A|-7--7--7--7--11-11-11-11--| 
E|-5--5--5--5--9--9--9--9---| 

VERSE 
'breathe in the air' 
e|-------------------------------------------------| 
B|-------------------------------------------------| 
G|-------------------------6--6--6--6--4--4--4--4--| 
D|-7--7--7--7--7--7--7--7--6--6--6--6--4--4--4--4--| 
A|-7--7--7--7--7--7--7--7--4--4--4--4--2--2--2--2--| (x4) 
E|-5--5--5--5--5--5--5--5--------------------------| 

Pre-Chorus (x2) 
'I know its the same for you everyday' 
e|-------------------------------------------------| 
B|-------------------------------------------------| 
G|-------------------------------------------------| 
D|-4--4--4--4--4--4--4--4--5--5--5--5--5--5--5--5--| 
A|-4--4--4--4--4--4--4--4--5--5--5--5--5--5--5--5--| 
E|-2--2--2--2--2--2--2--2--3--3--3--3--3--3--3--3--| 

e|--------------------------| 
B|--------------------------| 
G|--------------------------| 
D|-7--7--7--7--11-11-11-11--| (x2) 
A|-7--7--7--7--11-11-11-11--| 
E|-5--5--5--5--9--9--9--9---| 


'it just gets so crowded in here' 
G|-------------------------| 
D|-------------------------| 
A|---------------7---7-7-7-| (X6) 
E|-5---5-5-5-5-5-----------| 

'GET OUT OF MY HEAD' 
e|---------------------------------------------------------| 
B|---------------------------------------------------------| 
G|-9------9--9--6--6--6--------9--9--9--9--9--9--9---------| 
D|-9------9--9--6--6--6--7--7--7--7--7--7--7--7--7---------| 
A|-7------7--7--4--4--4--7--7--6--6--6--6--6--6--6---------| 
E|-----------------------5--5--5--5--5--5--5--5--5---------| 

e|----------------------------------------------------------| 
B|----------------------------------------------------------| 
G|----------------------------------------------------------| 
D|-4--4--4--4--4--4--4--4--5--5--5--5--5--5--5--5--7--------| 
A|-4--4--4--4--4--4--4--4--5--5--5--5--5--5--5--5--7--------| 
E|-2--2--2--2--2--2--2--2--3--3--3--3--3--3--3--3--5--------| 



************************************ 

| /   slide up 
| \   slide down 
| h   hammer-on 
| p   pull-off 
| ~   vibrato 
| +   harmonic 
| x   Mute note 
| b   Bend 
| pb  Pre-bend 
| br  Bend release 
| pbr Pre-bend release 
| brb Bend release bend 

************************************ 
share this page

See Also: