E-Chords
Venus

Mother's Voice(Tabs)

Venus

roll up this ad to continue

Key: D

Main Riff 
e-----------------------------------| 
b-----------------------------------| 
g-----------------------------------| 
d---7--5--7--8-----12--10--8--7-----| 
a---7--5--7--8-----12--10--8--7-----| 
D---7--5--7--8-----12--10--8--7-----| 


Variation A 
e-----------------------------------| 
b-----------------------------------| 
g-----------------------------------| 
d---7--5--7--8-----5--5--5--7-------| 
a---7--5--7--8-----5--5--5--7-------| 
D---7--5--7--8-----5--5--5--7-------| 


Variation B 
e-----------------------------------| 
b-----------------------------------| 
g-----------------------------------| 
d---7--7--7--8-----12--10--8--7-----| 
a---7--7--7--8-----12--10--8--7-----| 
D---7--7--7--8-----12--10--8--7-----| 


Variation C 
e-----------------------------------| 
b-----------------------------------| 
g-----------------------------------| 
d---7--7--7--8-----12--12--12--12---| 
a---7--7--7--8-----12--12--12--12---| 
D---7--7--7--8-----12--12--12--12---|  
share this page

See Also: