E-Chords
Venus

Bass Shivering(Tabs)

Venus

roll up this ad to continue

Key: F#

Bass riff (0:00) 

e-------------------------------------| 
b-------------------------------------| 
g-------------------------------------| 
d-------------------------------------| 
a-------------------------------------| 
e--4--2-4---4--2-4---4--2-4---4--2-4--| 



First violin riff (0:14) 

e----------------------------------| 
b----------------------------------| 
g----------------------------------| 
d--4h6-6-6-6-4-4-4--4h6-6-6-6-7-7--| 
a----------------------------------| 
e----------------------------------| 



Second violin enters (0:27) 

e--2h4-4-4-4-2-2-2--2h4-4-4-4-5-5--| 
b----------------------------------| 
g----------------------------------| 
d--4h6-6-6-6-4-4-4--4h6-6-6-6-7-7--| 
a----------------------------------| 
e----------------------------------| 



Guitar riff (0:47) 

e-----------------------------------------| 
b-----------------------------------------| 
g-----------------------------------------| 
d--4-6-4-6-4-4-11-10---4-6-4-6-4-4-11h13--| 
a-----------------------------------------| 
e-----------------------------------------| 



Second guitar (2:01) 

F# G# G# G# F# F# G# G# 



Pause (3:20) 



Reprise with lyrics (3:24) 

Here is the now    I've tried 
G#           C#     C#m   F# G# 



After the break, play this new chords but the rest of the  

other chords and riffs continue to play together. 
And play it to the end. 
Oh and I'm not sure for those lyrics 
share this page

See Also: