E-Chords
Vanilla Sky

1981(Tabs)

Vanilla Sky



Tabbed by: Scarpa22 

Tuning: Half Step Down  

Intro/Verse: 

|------------------------------------| 
|----------0-----------------0-------| 
|------2-----2---2-------2-----2---2-| 
|----0---0-----0-------0---0-----0---| 
|--2-----------------2---------------| 
|------------------------------------| 


|------------------------------------| 
|----------0-----------------0-------| 
|------2-----2---2-------2-----2---2-| 
|----0---0-----0-------0---0-----0---| 
|--0-----------------0---------------| 
|------------------------------------| 


|------------------------------------| 
|----------0-----------------0-------| 
|------2-----2---2-------2-----2---2-| 
|----0---0-----0-------0---0-----0---| 
|------------------------------------| 
|--3-----------------3---------------| 

|------------------------------------| 
|----------0-----------------0-------| 
|------2-----2---2-------2-----2---2-| 
|----0---0-----0-------0---0-----0---| 
|--0-----------------0---------------| 
|------------------------------------| 


Chorus: 

|----------------------------------------------------------------------| 
|----------------------------------------------------------------------| 
|--4-4-4-4-4-4-----2-2-2-2-2-2----7-7-7-7-7-7--------------------------| 
|--4-4-4-4-4-4-----2-2-2-2-2-2----7-7-7-7-7-7---5-5-5-5-5-5------------| 
|--2-2-2-2-2-2-----0-0-0-0-0-0----5-5-5-5-5-5---5-5-5-5-5-5------------| 
|-----------------------------------------------3-3-3-3-3-3------------| 


|----------------------------------------------------------------------| 
|----------------------------------------------------------------------| 
|--4-4-4-4-4-4-----2-2-2-2-2-2-----------------------------------------| 
|--4-4-4-4-4-4-----2-2-2-2-2-2----5-5-5-5-5-5---5-5-5-5-5-5------------| 
|--2-2-2-2-2-2-----0-0-0-0-0-0----5-5-5-5-5-5---5-5-5-5-5-5------------| 
|---------------------------------3-3-3-3-3-3---3-3-3-3-3-3------------| 


Bridge: 

|----------------------------------------------------------------------| 
|----------------------------------------------------------------------| 
|----------------------------------------------------------------------| 
|--2-2-2-2-2-2-----5-5-5-5-5-5----9-9-9-9-9-9---7-7-7-7-7-7------------| 
|--2-2-2-2-2-2-----5-5-5-5-5-5----9-9-9-9-9-9---7-7-7-7-7-7------------| 
|--0-0-0-0-0-0-----3-3-3-3-3-3----7-7-7-7-7-7---5-5-5-5-5-5------------| 

|----------------------------------------------------------------------| 
|----------------------------------------------------------------------| 
|----------------------------------------------------------------------| 
|--2-2-2-2-2-2-----5-5-5-5-5-5----9-9-9-9-9-9---7-7-7-7-7-7------------| 
|--2-2-2-2-2-2-----5-5-5-5-5-5----9-9-9-9-9-9---7-7-7-7-7-7------------| 
|--0-0-0-0-0-0-----3-3-3-3-3-3----7-7-7-7-7-7---5-5-5-5-5-5------------| 

roll up this ad to continue

share this page

See Also: