E-Chords
V8

Si Puedes Vencer Al Temor(Tabs)

V8

roll up this ad to continue

Key: A
V8 - Si Puedes Vencer al Temor... 

Intro 
1|---------------------|--------------|-----------------10- 
2|------------------x2-|-Base-De-Bajo-|-Raspado-de-Púa--10- 
3|---------------------|--------------|-----Lento-------10- 
4|------7-------7------|--------------|------------------0- 
5|-0-0----7--0---7~~---|-5~~~~~~------|-------------------- 
6|---------------------|--------------|-------------------- 

Riff Principal: 
1|------------------| 
2|------------------| 
3|------------------| 
4|-0--3--2--0-2-3-5-| 
5|------------------| 
6|------------------| 

Sobre base de Bajo (La misma Para la Guitarra) 

En medio de la noche 
Está esperándote 
Aguarda el momento 
Que vayas por él 
Mil risas de espejos mil burlas traerá 
Mil caras y un rostro 
El rostro del mal. 

Riff Principal 

Sobre base de Bajo (La misma Para la Guitarra) 

No caigas en su garra cruel 
Es muy complicado zafarse de él 
Ignora sus fuerzas, 
Lo podrás vencer 
Si no lo consigues 
Serás parte de él. 

Minuto 03:55 Corte                                   X2 
1|-----------------------------------------------------|--------------------| 
2|-3-3-------------3------------3----------------------|-3-3----------------| 
3|-2-2--0h2h3p2p0--2-0h2h3p2p0--2--0h2h3p2p0-0---------|-2-2----------------| 
4|-0-0-------------0------------0--------------2-3p0---|-0-0-5-4-2----------| 
5|-----------------------------------------------------|-----3-2-0-5-4--3~~-| 
6|-----------------------------------------------------|-----------3-2--1~~-| 

Riff 1 
1|----------------|-------------------------| 
2|----------------|-------------------------| 
3|----------------|---------2p0-----2p0-----| 
4|-2--2-2--7------|-2--2-2------2p0-----2p0-| 
5|-0--0-0----6-7--|-0--0-0------------------| 
6|----------------|-------------------------| 

Riff 2 X2 
1|----------------------------| 
2|----------------------------| 
3|----------------------------| 
4|----------------------------| 
5|-7------7------7------10-9--| 
6|-5-xxxx-5-xxxx-5-xxxx-8--7--| 


A                 E         F 
Honda pesadilla se desencadenará 

A                E          F 
Mortajas de humo, tumbas de metal 

B            F 
Suenan las campanas 

B          F 
Se aproxima ya 

B           (F   G) 
La horrenda figura del mal 

Riff 2 X2 

Miserables llantos, claman por piedad 
Una pura vida llegó a su final 
Una nueva víctima 
Para Satanás 
Marcó la daga del mal 

Riff 2 X2 

(Minuto 04:53) 
Corte en La e Inicio Solo Nº3 

Bajo: 
1|-------|--------------------------------------------------------------------- 
2|-------|--------------------------------------------------------------------- 
3|-0-----|---------8--8-8-8---------8--8-8-8---------8--8-8-8---------8--8-8-8- 
4|-------|-7-7-7-7----------7-7-7-7----------7-7-7-7----------7-7-7-7---------- 

 Esta parte la Hace una sola vez y es SOLAMENTE en La5 
1|-------------------------------------------------14-14-14-14-14-14-14-14- 
2|---------------------------------7-7-7-7-7-7-7-7------------------------- 
3|-0-0-0-0-0-0-0-0-0-0-0-0-0-0-0-0----------------------------------------- 
4|------------------------------------------------------------------------- 

1|--------------------------------------------------------------------- 
2|--------------------------------------------------------------------- 
3|---------8--8-8-8---------8--8-8-8---------8--8-8-8---------8--8-8-8- 
4|-7-7-7-7----------7-7-7-7----------7-7-7-7----------7-7-7-7---------- 

Riff 1 X14 

En la 8ta Vez Arranca el Solo Nº4 

(Minuto 05:50) Riff 2 X2 

Nunca te sumerjas en la oscuridad 
Si eres una flor de la virginidad 
Manos de verdugos 
Puedes encontrar 
Serás la ofrenda a Satán 


A5 
share this page

See Also: