E-Chords
Urbandub

A New Tattoo(Tabs)

Urbandub

roll up this ad to continue

Key: G
Intro: 
G - Em - Bm - C 

Gabby's part only. 
D#|-------2------------5-2--2h3p2---------------------------------------------| 
A#|---------3--------------------5-3------------------------------------------| 
F#|----4------------4---------------------------------------------------------| 
C#|--5------------5-----------------------------------------------------------| 
G#|---------------------------------------------------------------------------| 
D#|---------------------------------------------------------------------------| 

D#|-------2--------2---2---2---2----------------------------------------------| 
A#|---------3--------3---3---3---3--------------------------------------------| 
F#|----4----------------------------------------------------------------------| 
C#|--5------------------------------------------------------------------------| 
G#|---------------------------------------------------------------------------| 
D#|---------------------------------------------------------------------------| 

And then: 
D#|---x-------------------|    2x 
A#|---8-------------------| 
F#|---7-------4---5-------| 
C#|---5---2---4---5-------| 
G#|---5---2---2---3-------| 
D#|---5---2---------------| 

************************************ 

| h  Hammer-on 
| p  Pull-off 
| x  Dead note 
  
************************************ 
share this page

See Also: