E-Chords
Ultramen

Divida (UltraMen e Rappa )(Tabs)

Ultramen

e)----------------------------------------------- 
b)--8^10^8--------8^10^8-------8^10^8-------8-10- 
g)---------10-7----------10-7---------10-10------ 
d)----------------------------------------------- 
a)----------------------------------------------- 
E)----------------------------------------------- 
 
e)-------------------------------------------------- 
b)-10-8-------10-8-------------------------8-------- 
g)------10-7-------10-7---7-10--7-10--7-10----10~~-- 
d)-------------------------------------------------- 
a)-------------------------------------------------- 
E)-------------------------------------------------- 
 
e)----------------------------------------------- 
b)--8^10^8--------8^10^8-------8^10^8-------8-10- 
g)---------10-7----------10-7---------10-10------ 
d)----------------------------------------------- 
a)----------------------------------------------- 
E)----------------------------------------------- 
 
e)-15-13-------------------------------------------------- 
b)-------15-13^15--13--------------------8^10-10-8-------- 
g)--------------------13-12-11-10---7^10-----------10-7~-- 
d)-------------------------------------------------------- 
a)-------------------------------------------------------- 
E)-------------------------------------------------------- 
 

roll up this ad to continue

share this page

See Also: