E-Chords
Tyler, The Creator

Campfire(Tabs)

Tyler, The Creator


intro/verse/chorus ('we're making smores by the campfire...') 

e|--------------------------------------------------------------------------| 
B|--------------------------------------------------------------------------| 
G|-----6--8--10~-------10-9------8~--6---------4--6--8~------8-7-----6~--4--| 
D|--8--------------8-----------8------------6-------------6---------6-------| 
A|--------------------------------------------------------------------------| 
E|--------------------------------------------------------------------------| 


bridge (laetita sadier part) 
i know this part is wrong, this is just an idea and would be cool if u could help 

e|--------------------------------------------------------------------------| 
B|--------------------------------------------------------------------------| 
G|------7--10--7-----7--10--7-----9---12--15--12--(x3)----------------------| 
D|---9------------9---------------------------------------------------------| 
A|--------------------------------------------------------------------------| 
E|--------------------------------------------------------------------------| 


outro 

e|--------------------------------------------------------------------------| 
B|--------------------------------------------------------------------------| 
G|-----2--4--6~-----6-5-----4~--2----------0--2--4~-----4-3-----2~--0-------| 
D|--4------------4--------4-------------2------------2--------2-------------| 
A|--------------------------------------------------------------------------| 
E|--------------------------------------------------------------------------| 

roll up this ad to continue

share this page

See Also: