E-Chords
Tyler, The Creator

Bimmer(Tabs)

Tyler, The Creator

Key: A

Intro: 

E|-----6--------------------| 
B|-------7------------------| 
G|---------8----------------| x4 
D|--------------------------| 
A|--------------------------| 
E|--------------------------| 


Hook/Main Riff: 

E|---6----------------6---------------------------------| 
B|-----7----------------7------6------------------------| 
G|-------8------8---------8------6----------------------| 
D|-----------9----------------------8-------------------| 
A|------------------------------------------------------| 
E|------------------------------------------------------| 


Chords for Chorus: A, F#m, and Cmaj7/E (?) x2 


Cmaj7/E (?): E|---3--| 
            B|---1--| 
            G|---0--| 
            D|---2--| 
            A|---3--| 
            E|---x--| 


And then: 

          E|------7---4--------------| 
          B|--0----------5-----------| 
          G|-------------------------| 
          D|-------------------------| 
          A|-------------------------| 
          E|-------------------------| 

roll up this ad to continue

share this page

See Also: