E-Chords
Tyler, The Creator

Answer(Tabs)

Tyler, The Creator




E----------------------------------------| 
A----3-----3--------3-----3--------------| 
D-----2---2----------2---2---------------| 
G-------0--------------0-----------------| 
B----------------------------------------| 
E------------0-3-0-----------0-3-0-------| 

E----------------------------------------| 
A----0-----0--------0-----0--------------| 
D-----2---2----------2---2---------------| 
G-------0--------------0-----------------| 
B----------------------------------------| 
E------------0-3-3-----------0-3-3-------| 

E----------------------------------------| 
A----3-----3--------1-----1--------------| 
D-----2---2----------2---2---------------| 
G-------0--------------0-----0~----------| 
B----------------------------------------| 
E------------0-3-0-----------------------| 

E----------------------------------------| 
A----0-----0---------0----0--------------| 
D-----2---2------2-----2-----------------| 
G-------0------0---0---------0~----------| 
B------------1---------------------------| 
E----------------------------------------| 

Repeat throughout whole song 

roll up this ad to continue

share this page

See Also: