E-Chords
Tv On The Radio

Wolf Like Me(Tabs)

Tv On The Radio

roll up this ad to continue

Key: D
Tuning: Drop D 

 Volume Swell 'till 0:14   0:14   Swell                               0:24 
e|-----------------------|---------------------------------------------|-------------| 
B|-----------------------|---------------------------------------------|-------------| 
G|-----------------------|---------------------------------------------|-------------| 
D|-0-0-0-0-0-0-0-0-0-0-0-|-9-9-9-9-9-9-9-9-9-9-9-9-9-9-9-9-9-9-9-9-9-9-|-7-7-7-7-7-7-| 
A|-----------------------|---------------------------------------------|-------------| 
D|-----------------------|---------------------------------------------|-------------| 

Rhythm Guitar Start at 0:36 
e|-----------------------------------------------------------------------------------------------------| 
B|-----------------------------------------------------------------------------------------------------| 
G|-11111111111111111111111111111111-9-9-7-7-7-7-7-7-7-7-7-7-7-7-14-14-14-14-14-14-14-14-14-14-14-14-14-| 
D|-9-9-9-9-9-9-9-9-9-9-9-9-9-9-9-9--7-7-5-5-5-5-5-5-5-5-5-5-5-5-12-12-12-12-12-12-12-12-12-12-12-12-12-| 
A|-9-9-9-9-9-9-9-9-9-9-9-9-9-9-9-9--7-7-5-5-5-5-5-5-5-5-5-5-5-5-12-12-12-12-12-12-12-12-12-12-12-12-12-| 
D|-9-9-9-9-9-9-9-9-9-9-9-9-9-9-9-9--7-7-5-5-5-5-5-5-5-5-5-5-5-5-12-12-12-12-12-12-12-12-12-12-12-12-12-| 

Lead Start at 0:47             (x2) 1:09   1:14 
e||-------------------------------||---------------| 
B||-------------------------------||-12////-15////-| 
G||-----------------------11(x16)-||---------------| 
D||-9(x16)-12(x16)-7(x16)---------||---------------| 
A||-------------------------------||---------------| 
D||-------------------------------||---------------| 

  1:20                      (x2) 1:40   1:52   1:57 
e||---------------------------||----------------------| 
B||---------------------------||--------12////-15////-| 
G||--------------------11////-||-11////---------------| 
D||-9////-12////-7////--------||----------------------| 
A||---------------------------||----------------------| 
D||---------------------------||----------------------| 

  3:05                      (x2) 3:26   1:32   1:37 
e||---------------------------||----------------------------| 
B||---------------------------||-11////-12////-15////-19////| 
G||--------------------11////-||----------------------------| 
D||-9////-12////-7////--------||----------------------------| 
A||---------------------------||----------------------------| 
D||---------------------------||----------------------------| 
share this page

See Also: